Oops, an error
Loading. Please wait.

Arrieros Somos tab

146 views 1 this week
no commentswrite comment
1 2 3 4 5
3 more votes to show rating
add to favorites
×
Save as Personal and add changes to this tab that will be seen only by you. Learn more ›
×
You can save this tab as Personal to edit and correct it or add notes. All changes will be seen only by you. Learn more »
launch autoscroll
font size
0
reset
how to read this tab
guitar tuner
edit
Autoscroll
slow
fast
+/-
esc
set tempo
stop
Intro:

1|-----------7~~~--5~~~--7~~~--3~~~--|
2|-----------------------------------|
3|---7~~~~~7~~~--5~~~--7~~~--4~~~----|
4|-----------------------------------|
5|-----------------------------------|
6|-----------------------------------|

1|-----3----5----7-----10~~~--|
2|----------------------------|
3|---4----5----7----10~~~-----|
4|----------------------------|
5|----------------------------|
6|----------------------------|

1|-----8~~~--7~~~----------3---------3-|
2|-------------------3----3------3--3--|
3|---9~~~--7~~~----0-----0-----0---0---|
4|----------------------0----0----0----|
5|-------------------------------------|
6|---------------3---------------------|

   Riff 1
E               B7     E
Arrieros somos y en el camino andamos
                      Riff 2
                            B7
Y cada quien tendra su merecido
                                E
Ya lo veras que al fin de tu camino
       B7                   E
Renegeras hasta de haber nacido

                    B7          E
Si todo el mundo salimos de la nada
                 E7            A
Y a la nada por Dios que volveremos
                         B7            E
Me rio del mundo que al fin ne el es eterno
          B7                 E
Por esta vida nomas nomas pasamos

         B7                  E
Tu me pediste amor y yo te quise
         B7                    E
Tu me pediste mi vida y te la di
                         E7             A
Si al fin de cuentas te vas, pues anda vete
            E        B7               E
Que la tristeza te lleve igual que a mi

                          B7     E
Arrieros somos y en el camino andamos

Riff 1:

                                    ^
1|----------------------------------3---|
2|---7 / (4)-4--4-6-7/(11)11--9--7--3---|
3|----------------------------------0---|
4|----------------------------------0---|
5|--------------------------------------|
6|--------------------------------------|

Riff 1:

1|--------7------7------------|
2|------8-----8----8----------|
3|---7---------7-----7-4~~~---|
4|----------------------------|
5|----------------------------|
6|----------------------------|

Sombologia:

~  Dejar sonar
^  Rasgueo hacia abajo
() Nota fantasma
/  Barrido (slide)
h  Hammer
p  Pull

            
            
Suggest correction
Creating personal tab
Creating personal tab
You can edit any tab online and save it as your Personal.

You can edit, replace or remove any tab part or add personal notes – all changes will be seen only by you.

Personal tabs can be accessed anytime from any device, even offline.
Learn more »
Give kudos to tab author, rate the tab!
1 2 3 4 5
comments
print report bad tab
guest
Wanna post a correction for this tab? Suggest correction