Oops, an error
Loading. Please wait.

La Vida Es Muy Corta Para Llegar A Otra Galaxia tab

12 views 1 this week
no commentswrite comment
1 2 3 4 5
3 more votes to show rating
add to favorites
×
Save as Personal and add changes to this tab that will be seen only by you. Learn more ›
×
You can save this tab as Personal to edit and correct it or add notes. All changes will be seen only by you. Learn more »
launch autoscroll
font size
0
reset
how to read this tab
guitar tuner
edit
Autoscroll
slow
fast
+/-
esc
set tempo
stop
la vida es muy corta para llegar a otra galaxia 

SIm
A)
1  --9-----10------12-9--9/10/9---------------------------------------
2  ----9-----9----------9---------9-12-9---12-9---12-9---12-9--------
3  -----10---10--------------------------10-----10------10-----10----         // x 5

B)                  C)                                D)
1  --8----          --6--4--3--0---           ----------------------------
2  ---9---          ---------------           ----7--5--3----3S>5--3-2----
3  ----8-- x4       -6--4--3--1---- x2        --6--4--2-------------------

juego en 'b)'


1  --7---------I
2  ----9-------I
3  ------10----I

A)
First time i see you 
i know you are the one
all a life is short for our love
your look printed forever on me
don't be afraid, there's no reason for be afraid 
B)
in anothers bodies our souls see

C) D)
juego en b)

we always be together 
 


la primera vez que te vi
supe que eras vos,
toda una vida es poco para nuestro amor,
tu mirada grabada por siempre en mi, 
no temas, no hay porque tener miedo
en otros cuerpos nuestras almas se encontraran,
siempre estaremos juntos. 

cualquier cosa
marcko_30@

            
            
Suggest correction
Creating personal tab
Creating personal tab
You can edit any tab online and save it as your Personal.

You can edit, replace or remove any tab part or add personal notes – all changes will be seen only by you.

Personal tabs can be accessed anytime from any device, even offline.
Learn more »
Give kudos to tab author, rate the tab!
1 2 3 4 5
comments
print report bad tab
guest
Wanna post a correction for this tab? Suggest correction