Oops, an error
Loading. Please wait.

Orgullo Mapuche tab

213 views 1 this week
no commentswrite comment
1 2 3 4 5
3 more votes to show rating
add to favorites
×
Save as Personal and add changes to this tab that will be seen only by you. Learn more ›
×
You can save this tab as Personal to edit and correct it or add notes. All changes will be seen only by you. Learn more »
launch autoscroll
font size
0
reset
how to read this tab
guitar tuner
edit
Autoscroll
slow
fast
+/-
esc
set tempo
stop
Intro
E|----------------------------------------------------
B|----------------------------------------------------
G|-----------------------8-6------------------9-------
D|---------6-7-6-7-9-7-9-----9--7-6-------6-9---9--6--
A|-7-7--9---------------------------9--7--------------
e|----------------------------------------------------

---------------------------------------------------------|
---------------------------------------------------------|
-----------------------------------8-6----------------9--|
--------6---------------------9-8-9-----9-7-6------6-9---|
------7-----9--7-6--------6-9-----------------9-7--------|
-7-----------------9--7----------------------------------|X3

------------------|
------------------|
------------------|
------------------|
--7--6------------|
---------9--7-----|

SI MI x4

               SOL#            LA    SI#
Caramba son mucho, muchos en un verable
LAm          REm  SOL                     LAm
Caramba Caciques, caciques de nuestra tierra
LAm          REm  SOL                     LAm
Caramba Caciques caciques de nuestra tierra
              SOL#              LA      SI#
Caramba dijieron, dijieron propio destino
LAm          REm  SOL                     LAm
Caramba fueron bra... fueron bravos guerra
LAm          REm  SOL                     LAm
Caramba son mucho, son mucho en un verable
               SOL#            LA    SI#
Galvarino valiente,caramba siembre luchando
LAm               REm  SOL                   LAm
Le cortaron las manos, caramba siguió peleando
LAm            REm  SOL                     LAm
Galvarino valiente, caramba siempre luchando
                  SOL#           LA         SI#
Siguió peleando al fin, caramba gran estratega
LAm            REm  SOL                 LAm
Se llamaba Lautaro, caramba raza guerrera
               SOL#            LA    SI#
Orgullo nacional, caramba Caupolican


-------------------------|
-4-4-4-4-4---------------|
------------7-6-7-6-4----|
----------------------7--|
-------------------------|
-------------------------|


cualquier error porfavor haganlo saber para editarlo.
eduarock-lalo@

            
            
Suggest correction
Creating personal tab
Creating personal tab
You can edit any tab online and save it as your Personal.

You can edit, replace or remove any tab part or add personal notes – all changes will be seen only by you.

Personal tabs can be accessed anytime from any device, even offline.
Learn more »
Give kudos to tab author, rate the tab!
1 2 3 4 5
comments
print report bad tab
guest
Wanna post a correction for this tab? Suggest correction