Oops, an error
Loading. Please wait.

Oasis De Amor bass

45 views 1 this week
no commentswrite comment
1 2 3 4 5
3 more votes to show rating
add to favorites
×
Save as Personal and add changes to this tab that will be seen only by you. Learn more ›
×
You can save this tab as Personal to edit and correct it or add notes. All changes will be seen only by you. Learn more »
launch autoscroll
font size
0
reset
guitar tuner
edit
Autoscroll
slow
fast
+/-
esc
set tempo
stop
|--------------------------------
|----9---------9--------------9--
|7-10--7-----10-------7-----10--7
|--------------------------------
 Hoy,   he venido a decirte

|--------------------------
|-------9---------------5--
|-----10-----------3--7---3
|--------------------------
 Lo mucho que te quiero

|------------------------------
|------5---------------4------6
|----7------------2--6---2--6--
|------------------------------
 Lo mucho que te amo

////////////////////////////////////////////////

|------------------------------
|-----9----------9----------5--
|7-10---7-----10------3--7----3
|------------------------------
 Hoy,   ya no pude callar

|----------------------
|--------5-----------2-
|------7--------0--3---
|----------------------
 Y te vine a buscar asi

|-------------------------------------
|-------------------4---------9------9
|-2---------6-----------7---10--7-10--
|-------------------------------------
 Con el corazon en las manos

////////////////////////////////////////////////

|--------------------------
|--------------------------
|3----------7--------5----3
|--------------------------
 No puedo vivir sin tus besos

|------------------
|-------------5----
|------7----------5
|------------------
 El calor de tu cuerpo

|-----------------
|-----7-----------
|9---------------5
|----------3---7--
 Me hace falta

|-------------------
|--------4---------4
|2----6-----2----6--
|-------------------
 Eres tu

////////////////////////////////////////////////

|--------------------------
|--------------------------
|3----------7--------5----3
|--------------------------
 Un oasis en mi desierto

|------------------
|-------------5----
|------7----------5
|------------------
 La luz de la mañana

|---------------------------
|------------7--------------
|----------9---------------5
|--------------------3---7--
 Que entra por mi ventana

////////////////////////////////////////////////

|----------------------------------------
|-----------------2----------------------
|----0-------3--------------0-------3----
|----------------------------------------
 Mi vida es vacia sin tus besos y caricias

|---------------------------
|2------------4------------9
|-------2---6--------7--10--
|---------------------------
 Yo sin ti no valgo nada

|---------------------------------------------------------
|-----------------------2------------------2--------------
|
|---------------------------------------------------------
 Rompo este silencio y me trago mi orgullo porque se

|----------------------------
|------------------9--------9
|-----------7---10---7---10--
|----------------------------
 Que tu me amas

            
            
Suggest correction
Creating personal tab
Creating personal tab
You can edit any tab online and save it as your Personal.

You can edit, replace or remove any tab part or add personal notes – all changes will be seen only by you.

Personal tabs can be accessed anytime from any device, even offline.
Learn more »
Give kudos to tab author, rate the tab!
1 2 3 4 5
comments
print report bad tab
guest
Wanna post a correction for this tab? Suggest correction