Oops, an error
Loading. Please wait.

Punk No Muere tab

54 views 1 this week
no commentswrite comment
1 2 3 4 5
3 more votes to show rating
add to favorites
×
Save as Personal and add changes to this tab that will be seen only by you. Learn more ›
×
You can save this tab as Personal to edit and correct it or add notes. All changes will be seen only by you. Learn more »
launch autoscroll
font size
0
reset
how to read this tab
guitar tuner
edit
Autoscroll
slow
fast
+/-
esc
set tempo
stop
buenas esta es la primera cancion q transcribo y pss espero
 hacerlo bn esto es un tema q m ah pegado mucho y he visto
q ahn pedido tanbn paracualquiercosa m pueden agregar
vans_c.d@ LO UNICO esq no m se muy bien la letra

  Eb5            B5

E-------------------------
B-------------------------
G-------------------------
D--1--4--1-4--------------
A------------2-1-2--2-1-2-
E-------------------------

   Eb5             B5       C*5       B5             C*5     B5

E-------------------------------------------------------
B-------------------------------------------------------
G-------------------------------------------------------
D--1--4--1-4------------------4---------------------4---
A------------2-1-2--2-1-----4---4--2-1-2--2-1-----4---4-
E-------------------------------------------------------

A-2-1-2---2-1-2------------------------------------------

AQUI HACEN UNA PARADA EN CADA ACORDE
   Eb5              B5           C*5          G8

E---------------------------------------
B---------------------------------------
G---------------------------------------
D-1-1-1-4-3-4-------4-3-4------4-3-4-6--
A-------------2-2-2-------4-4-4---------
E---------------------------------------

  Eb5              B5           C*5          G8

E----------------------------------------------------
B----------------------------------------------------
G----------------------------------------------------
D--1-1-1---4-3-4--------4-3-4------4-3-4-6--6-4-3-1--
A-----------------2-2-2-------4-4-4------------------
E----------------------------------------------------

 Eb5                B5
ASTRODIERA DEPRECION
C*5                 G8
NO QUEREMS MAS CONTROL

 Eb5                B5
A TODO EL MALDITO MUNDO
C*5                 G8
A TODO EL SISTEMA SURDO
 Eb5                B5
NUNCA  VIDA E DEDICADO

C*5                 G8
IDEA NO DITALISADO

 Eb5                B5
EN TECNICA COMPLETA VALIA
C*5                 G8

CON LA ALELIA LIBERTARIA

Eb5           F5            F*5              G*8

PUNK NO MUERE, PUNK NO MUERE, PUNK NO MUERE,PUNK NO MUERE

B5       C*5

EL OI!! EL OI!

WENO TODO LO DEMAS SE REPITE ESPERO Q LO ENTIENDAN  CUALQUIER
DUDA M PUEDEN CONTACTAR

            
            
Suggest correction
Creating personal tab
Creating personal tab
You can edit any tab online and save it as your Personal.

You can edit, replace or remove any tab part or add personal notes – all changes will be seen only by you.

Personal tabs can be accessed anytime from any device, even offline.
Learn more »
Give kudos to tab author, rate the tab!
1 2 3 4 5
comments
print report bad tab
guest
Wanna post a correction for this tab? Suggest correction