Oops, an error
Loading. Please wait.

We Got To Have Peace bass

19 views 1 this week
no commentswrite comment
1 2 3 4 5
2 more votes to show rating
add to favorites
×
Save as Personal and add changes to this tab that will be seen only by you. Learn more ›
×
You can save this tab as Personal to edit and correct it or add notes. All changes will be seen only by you. Learn more »
launch autoscroll
font size
0
reset
guitar tuner
edit
Autoscroll
slow
fast
+/-
esc
set tempo
stop
Artist: Curtis Mayfield
Song: We Got To Have Peace
Tuning - Standard
tabbed by electricbunny

[Intro]
G|--------------------------------|--------------------------------|
D|4-----4-4-------4-----4-4---4---|4-----4-4---2-4-2-4---2-----2-4-|
A|------------4-------------4-----|----------4---------------4-----|
E|--------------------------------|--------------------------------|

[Verse]
G|--------------------------------|--------------------------------|
D|4-----4-4-4-4-4-2-4-4-4-----2---|2-----2---2-2---------------2-3-|
A|--------------------------4---4-|----------------2-----2---2-----|
E|--------------------------------|--------------------------------|

G|--------------------------------|--------------------------------|
D|4-----4---4-4-4-2-4-------------|----------------------------2-3-|
A|--------------------------------|--------------------------4-----|
E|--------------------2-2---2-2-2-|0-2-2-2-2-2-2-2-0-2-2-2---------|

G|--------------------------------|--------------------------------|
D|4-----4-4-4-4-4-2-4-4-4-----2---|2-----2---2-2---------------2-3-|
A|--------------------------4---4-|----------------2-----2---2-----|
E|--------------------------------|--------------------------------|

                                  [Pre-Chorus]
G|--------------------------------|------------------6-8-8---8-----|
D|----------4-----4---------------|--------------6-8---------------|
A|------------4-----4-----1---1---|6-----6---6-9-------------------|
E|2-----2-------------2-4-------4-|--------------------------------|

G|----------------------------4-5-|--------------------------------|
D|----------------1---------------|--------------------------------|
A|------1-----2-------------------|4---4-4---4-4---4-4-4-4---4-4-4-|
E|4-------------------------------|--------------------------------|

                                  [Chorus]
G|--------------------------------|--------------------------------|
D|--------------------------------|4-----4-4-4-4-4-2-4-4-4-----2---|
A|------4---4---------------------|--------------------------4---4-|
E|--------------------------------|--------------------------------|

G|--------------------------------|--------------------------------|
D|2-----2---2-2---------------2-3-|4-----4---4-4-4-2-4-------------|
A|----------------2-----2---2-----|--------------------------------|
E|--------------------------------|--------------------2-2---2-2-2-|

G|--------------------------------|--------------------------------|
D|----------------------------2-3-|4-----4-4-4-4-4-2-4-4-4-----2---|
A|--------------------------4-----|--------------------------4---4-|
E|0-2-2-2-2-2-2-2-0-2-2-2---------|--------------------------------|

G|--------------------------------|--------------------------------|
D|2-----2---2-2---------------2-3-|----------4-----4---------------|
A|----------------2-----2---2-----|------------4-----4-----1---1---|
E|--------------------------------|2-----2-------------2-4-------4-|

G|------------------6---8-8-8-8---|----------------------------4-5-|
D|--------------6-8---------------|----------------1---------------|
A|6-----6---6-9-------------------|------1-----2-------------------|
E|--------------------------------|4-------------------------------|

G|--------------------------------|6---------------6---------------|
D|--------------------------------|--------------------------------|
A|4---4-4---4-4---4-4-4-4---4-4-4-|------4---4---4-------------4---|
E|--------------------------------|--------------------------7---7-|

[Verse]
G|--------------------------------|------------------6-8-8---8-----|
D|4-----4---------4---------------|--------------6-8---------------|
A|----------4-4-----4-----1-----1-|6-----6---6-9-------------------|
E|--------------------2-----------|--------------------------------|

G|----------------------------4-5-|6---6-6---6-6---6-6-6-6---6-6-6-|
D|----------------1-1---1---1-----|--------------------------------|
A|------1-----2-------------------|--------------------------------|
E|4-------------------------------|--------------------------------|

G|--------------------------------|----------------4---------------|
D|4-----4-----2-3-4-------1---4---|1-----1-----1-4---4-----1-------|
A|----------4---------------------|----------4---------4-5---------|
E|--------------------------------|--------------------------------|

G|--------------------------------|----------4-5-6-6---------------|
D|--------------------------------|--------------------------------|
A|2-----2---------------------1-2-|4-----4-------------------------|
E|----------2-4-------4---4-------|--------------------------------|

[Pre-Chorus]
G|--------------------------------|--------------------------------|
D|4-4-4-4-4-2-4-4-4-----2---2-----|2---2-2---------------2-3-4-----|
A|--------------------4---4-------|----------2-----2---2-----------|
E|--------------------------------|--------------------------------|

G|--------------------------------|--------------------------------|
D|4---4-4-4-2-4-------------------|----------------------2-3-4-----|
A|--------------------------------|--------------------4-----------|
E|--------------2-2---2-2-2-0-2-2-|2-2-2-2-2-0-2-2-2---------------|

[Chorus]
G|--------------------------------|--------------------------------|
D|4-4-4-4-4-2-4-4-4-----2---2-----|2---2-2---------------2-3-------|
A|--------------------4---4-------|----------2-----2---2-----------|
E|--------------------------------|--------------------------2-----|

G|--------------------------------|------------6---8-8-8-8---------|
D|----4-----4---------------1-----|--------6-8---------------------|
A|------4-----4-----1---1---------|6---6-9-------------------------|
E|2-------------2-4-------4-------|--------------------------------|

G|----------------------------4-5-|--------------------------------|
D|----------------1-----1---------|--------------------------------|
A|------1-----2-------------------|4---4-4---4-4---4-4-4-4---4-4-4-|
E|4-------------------------------|--------------------------------|

                                  [Verse]
G|6---------------6---------------|--------------------------------|
D|--------------------------------|4-----4---------4---------------|
A|------4---4---4-------------4---|----------4-4-----4-----1-----1-|
E|--------------------------7---7-|--------------------2-----------|

G|------------------6-8-8---8-----|----------------------------4-5-|
D|--------------6-8---------------|----------------1-1---1---1-----|
A|6-----6---6-9-------------------|------1-----2-------------------|
E|--------------------------------|4-------------------------------|

G|6---6-6---6-6---6-6-6-6---6-6-6-|--------------------------------|
D|--------------------------------|4-----4-----2-3-4-------1---4---|
A|--------------------------------|----------4---------------------|
E|--------------------------------|--------------------------------|

G|----------------4---------------|--------------------------------|
D|1-----1-----1-4---4-----1-------|--------------------------------|
A|----------4---------4-5---------|2-----2---------------------1-2-|
E|--------------------------------|----------2-4-------4---4-------|

                                  [Bridge]
G|----------4-5-6-6---------------|--------------------------------|
D|--------------------------------|4-4-4-4---2-----------2---2-----|
A|4-----4-------------------------|------------4-------4---4-------|
E|--------------------------------|----------------2---------------|

G|--------------------------------|--------------------------------|
D|2---2-2---------------2-3-4-----|4---4-4-4-2-4-------------------|
A|----------2-----2---2-----------|--------------------------------|
E|--------------------------------|--------------2-2---2-2-2-0-2-2-|

G|--------------------------------|--------------------------------|
D|----------------------2-3-4-2---|4-4-4-4-4-2-4-4-2-4---2---2-----|
A|--------------------4---------4-|--------------------4---4-------|
E|2-2-2-2-2-0-2-2-2---------------|--------------------------------|

G|--------------------------------|--------------------------------|
D|2---2-2---------------2-3-------|----4-----4---------------1-----|
A|----------2-----2---2-----------|------4-----4-----1---1---------|
E|--------------------------2-----|2-------------2-4-------4-------|

                                  [Pre-Chorus]
G|------------6---8-8-8-8---------|----------------------------4-5-|
D|--------6-8---------------------|----------------1-----1---------|
A|6---6-9-------------------------|------1-----2-------------------|
E|--------------------------------|4-------------------------------|

G|--------------------------------|6---------------6---------------|
D|--------------------------------|--------------------------------|
A|4---4-4---4-4---4-4-4-4---4-4-4-|------4---4---4-------------4---|
E|--------------------------------|--------------------------7---7-|

G|--------------------------------|------------------6-8-8---8-----|
D|4-----4---------4---------------|--------------6-8---------------|
A|----------4-4-----4-----1-----1-|6-----6---6-9-------------------|
E|--------------------2-----------|--------------------------------|

[Verse]
G|--------------------------------|----------------4-----5-6-7-----|
D|4-----4-----2-3-4-------1---4---|--------------4---4---------4---|
A|----------4---------------------|6-----6---4-6-------------------|
E|--------------------------------|--------------------------------|

G|--------------------------------|----------4-5-6-6-------6-------|
D|--------------------------------|--------------------------------|
A|2-----2---------------------1-2-|4-----4-----------4-4-4---4-----|
E|----------2-4-------4---4-------|----------------------------0-1-|

G|--------------------------------|----------------4---------------|
D|4-----4-----2-3-4-------1---4---|1-----1-----1-4---4-----1-------|
A|----------4---------------------|----------4---------4-5---------|
E|--------------------------------|--------------------------------|

G|--------------------------------|----------4-5-6-6---------------|
D|--------------------------------|--------------------------------|
A|2-----2---------------------1-2-|4-----4-------------------------|
E|----------2-4-------4---4-------|--------------------------------|

[Outro]
G|--------------------------------|--------------------------------|
D|4-4-4-4-4-2-----------2---2-----|2---2-2---------------2-3-4-----|
A|------------4-------4---4-------|----------2-----2---2-----------|
E|--------------2-----------------|--------------------------------|

G|--------------------------------|--------------------------------|
D|4---4-4-4-2-4-------------------|----------------------2-3-4-----|
A|--------------------------------|--------------------4-----------|
E|--------------2-2---2-2-2-0-2-2-|2-2-2-2-2-0-2-2-2---------------|

G|--------------------------------|--------------------------------|
D|4-4-4-4-4-2-4-4-4-----2---2-----|2---2-2---------------2-3-------|
A|--------------------4---4-------|----------2-----2---2-----------|
E|--------------------------------|--------------------------2-----|

G|--------------------------------|------------6---8-8-8-8---------|
D|----4-----4---------------1-----|--------6-8---------------------|
A|------4-----4-----1---1---------|6---6-9-------------------------|
E|2-------------2-4-------4-------|--------------------------------|

G|--------------------------------|--------------------------------|
D|4-4-4-4-4-2-----------2---2-----|2---2-2---------------2-3-4-----|
A|------------4-------4---4-------|----------2-----2---2-----------|
E|--------------2-----------------|--------------------------------|

G|--------------------------------|--------------------------------|
D|4---4-4-4-2-4-------------------|----------------------2-3-4-----|
A|--------------------------------|--------------------4-----------|
E|--------------2-2---2-2-2-0-2-2-|2-2-2-2-2-0-2-2-2---------------|

G|--------------------------------|------------1-3-4---------------|
D|4---4-4---2---4-4-----2---2---1-|2---2-2---4-----------2-3-------|
A|--------------------4---4---4---|------------------2-----------2-|
E|--------------------------------|--------------------------2-----|

G|--------------------------------|
D|----4-----4---------------------|
A|------4-----4-----1---1---------|
E|2-------------2-4-------4-------|

            
            
Suggest correction
Creating personal tab
Creating personal tab
You can edit any tab online and save it as your Personal.

You can edit, replace or remove any tab part or add personal notes – all changes will be seen only by you.

Personal tabs can be accessed anytime from any device, even offline.
Learn more »
Give kudos to tab author, rate the tab!
1 2 3 4 5
comments
print report bad tab
guest
You may want to rate the tab now too:
select rating
Wanna post a correction for this tab? Suggest correction