Oops, an error
Loading. Please wait.

Curse Of Curves bass

version 1
version 1

Whole song

Interactive

12,959 views 3 this week
7 commentsread comments
1 2 3 4 5
x 12
add to favorites
×
Save as Personal and add changes to this tab that will be seen only by you. Learn more ›
×
You can save this tab as Personal to edit and correct it or add notes. All changes will be seen only by you. Learn more »
launch autoscroll
font size
0
reset
guitar tuner
edit
Autoscroll
slow
fast
+/-
esc
set tempo
stop
Author
Difficulty
Artist: Cute Is What We Aim For
Bassist: Jack Marin (current)
Song: The Curse Of Curves
Album: The Same Old Bloodrush With A New Touch
Tabbed By: Lewis [lewis_mason21@hotmail.com]

Key:
~: Let Note Ring
/: Slide Up

[Tuning: Standard - E,A,D,G]

Verse One: [x4]
("I've got the gift of one liners" ... "Won't allow it")
G|-------------------------------------|
D|-------------------33333333----------|
A|-55555555-33333333----------11111111-|
E|-------------------------------------|

Pre-Chorus:
("The inside lingo" ... "Where the money goes")
G|-----------------------------------|
D|-----------------------------------|
A|-1~---3~------------1~---3~--------|
E|-----------1~-----------------1~---|

Chorus: [x2]
("I want someone" ... "With skin you'll win")
G|------------------------------------|
D|------------------------------------|
A|----------33333333-1111111111111111-|
E|-11111111---------------------------|

Verse Two: [Note: 1's, not 11's!  And timing is the trick here]
("Her bone structure screams" ... "The cousin of greed")
G|-------------------------|
D|---------------33--333---|
A|-55--55533--333-------11-|
E|-------------------------| [x2]

G|-------------------------------------|
D|-------------------33333333----------|
A|-55555555-33333333----------11111111-|
E|-------------------------------------| [x2]

Pre-Chorus:
("The inside lingo" ... "Where the money goes")
G|-----------------------------------|
D|-----------------------------------|
A|-1~---3~------------1~---3~--------|
E|-----------1~-----------------1~---|

Chorus: [x2]
("I want someone" ... "With skin you'll win")
G|------------------------------------|
D|------------------------------------|
A|----------33333333-1111111111111111-|
E|-11111111---------------------------|

Interlude:
("Her bone structure screams" ... "With skin you'll win")
G|-----------------------------------------------------------------------|
D|-----------------------------------------------------------------------|
A|-55555555-33333333-1111111111111111----------33333333-1111111111111111-|
E|------------------------------------11111111---------------------------|

Bridge: [x4]
("We all have teeth that can bite underneath" ... "Where the reality grows")
G|------------------------------------|
D|------------------------------------|
A|-55555555-33333333------------------|
E|-------------------1111111111111111-|

Pre-Chorus Variation:
("From what I've heard" ... "With skin you'll win")
G|--------------------------------------------------|
D|--------------------------------------------------|
A|------3~----1~-----------3~---11111111111111111---|
E|-1~-----------------1~----------------------------|

Chorus: [x2]
("I want someone" ... "With skin you'll win")
G|------------------------------------|
D|------------------------------------|
A|----------33333333-1111111111111111-|
E|-11111111---------------------------|

Outro:
("Her bone structure screams" ... "Skin you'll win")
G|-----------------------------------------------------------------------|
D|-----------------------------------------------------------------------|
A|-55555555-33333333-1111111111111111----------33333333-1111111111111111-|
E|------------------------------------11111111---------------------------|

G|-----------------|
D|-----------------|
A|------3~----1~---|
E|-1~--------------|

            
            
Suggest correction
Creating personal tab
Creating personal tab
You can edit any tab online and save it as your Personal.

You can edit, replace or remove any tab part or add personal notes – all changes will be seen only by you.

Personal tabs can be accessed anytime from any device, even offline.
Learn more »
comments
print report bad tab
7 comments total. Showing first comments.
0 reply
Hansonator3 208 Jul 21, 2007 10:07 AM

wicked nice job man--sick tab

0 reply
xTheJoeex 30 Sep 12, 2007 06:14 PM

GREAT TAB! just one question... why did you rate it intermediate? that was probably the easiest thing EVER!

0 reply
LewisMasonx 1,741 Sep 20, 2007 08:39 AM

Some newbies has difficulty with timings, such as in the second verse. :) I thought intermediate would be appropriate taking that into account, I guess.

guest
You may want to rate the tab now too:
select rating
Wanna post a correction for this tab? Suggest correction