Oops, an error
Loading. Please wait.

Curse Of Curves tab

version 2
version 2

Whole song

Interactive

36,106 views 6 this week
8 commentsread comments
1 2 3 4 5
x 20
add to favorites
×
Save as Personal and add changes to this tab that will be seen only by you. Learn more ›
×
You can save this tab as Personal to edit and correct it or add notes. All changes will be seen only by you. Learn more »
launch autoscroll
font size
0
reset
how to read this tab
guitar tuner
edit
Autoscroll
slow
fast
+/-
esc
set tempo
stop
-------------------------------------------------------------------------------
                 The Curse Of Curves - Cute Is What We Aim For
-------------------------------------------------------------------------------
Tabbed by: ilovecanada1121
Email: ilovecanada1121@hotmail.com

The others were close, but this is easier to read and has all the 2nd guitar parts that i could hear.


Tuning: Standard (e-B-G-D-A-E)

[Verse One]
 Guitar One:
e|---------------------------|
B|---------------------------|
G|-7------------10-----------|x4
D|-7(x8)-10-----10(x8)-8-----|
A|-5-----10(x8)-8------8(x8)-|
E|-------8-------------6-----|
pm *     *      *      *

 Guitar Two:
e|---------------------|
B|-6------5------------|
G|-5(x8)--5(x8)-5------|x4
D|--------------3(x16)-|
A|---------------------|
E|---------------------|
pm *      *     *

[Pre-Chorus]
 Guitar One:
e|---------------------------------------|
B|---------------------------------------|
G|-3----5-------------3----5-------------|
D|-3----5----3--------3----5----3--------|
A|-1----3----3--------1----3----3--------|
E|-----------1------------------1--------|

 Guitar Two:
e|------8-------------|
B|----8---8----8----8-|
G|-10-------10---10---|x8
D|--------------------|
A|--------------------|
E|--------------------|

[Chorus]
 Guitar One and Two:
e|--------------------|
B|--------------------|
G|-------5-----3------|x2
D|-3-----5(x8)-3(x16)-|
A|-3(x8)-3-----1------|
E|-1------------------|

[Verse Two]
 Guitar One:
e|----------------------------------------|  |---------------------------|
B|----------------------------------------|  |---------------------------|
G|-77--777------------1010--101010--------|x2|-7------------10-----------|x2
D|-77--7771010--1010101010--10101088--888-|  |-7(x8)-10-----10(x8)-8-----|
A|-55--5551010--1010108-8---8-8-8-88--888-|  |-5-----10(x8)-8------8(x8)-|
E|--------8-8---8-8-8-------------66--666-|  |-------8-------------6-----|
pm **  **** *   * * * * *   * * * **  ***      *     *      *      *

 Guitar Two:
e|----------------------------------|  |---------------------|
B|-66---66655---555-----------------|  |-6------5------------|
G|-55---55555---55555---55555---555-|x2|-5(x8)--5(x8)-5------|x2
D|-----------------33---33333---333-|  |--------------3(x16)-|
A|----------------------------------|  |---------------------|
E|----------------------------------|  |---------------------|
pm **   *****   *****   *****   ***      *     *      *



                

            
            
Suggest correction
Creating personal tab
Creating personal tab
You can edit any tab online and save it as your Personal.

You can edit, replace or remove any tab part or add personal notes – all changes will be seen only by you.

Personal tabs can be accessed anytime from any device, even offline.
Learn more »
comments
print report bad tab
8 comments total. Showing first comments.
+1 reply
ilovecanada1121 80 Oct 23, 2006 05:45 PM

Sorry guys, i screwed up, the 2nd verse looks like this:

Guitar Two:
e|----------------------------------|
B|-66---66655---55555---55555---555-|
G|-55---55555---55533---33333---333-|
D|----------------------------------|
A|----------------------------------|
E|----------------------------------|
pm ** ***** ***** ***** ***

But it should be this:

Guitar Two:
e|----------------------------------|
B|-66---66655---555-----------------|
G|-55---55555---55555---55555---555-|
D|-----------------33---33333---333-|
A|----------------------------------|
E|----------------------------------|
pm ** ***** ***** ***** ***

0 reply
Roflcopter 228 Mar 26, 2007 05:41 AM

5 stars!
Good job, mate! It's a new song to me, and my ears are not very good, but it sounds right. A couple minor mistakes, but easy enough for anyone to pick up if they're pissy enough to bother. Thanks

0 reply
saosin22533 40 Jun 19, 2007 10:49 AM

i like your tab better than the other ones...it sounds right for the most part and is easier to read

guest
You may want to rate the tab now too:
select rating
Wanna post a correction for this tab? Suggest correction