Oops, an error
Loading. Please wait.

Doctor bass

version 2
version 2

Whole song

571 views 1 this week
no commentswrite comment
1 2 3 4 5
3 more votes to show rating
add to favorites
×
Save as Personal and add changes to this tab that will be seen only by you. Learn more ›
×
You can save this tab as Personal to edit and correct it or add notes. All changes will be seen only by you. Learn more »
launch autoscroll
font size
0
reset
guitar tuner
edit
Autoscroll
slow
fast
+/-
esc
set tempo
stop
Author
Difficulty
-------------------------------------------------------------------------------
		  Doctor - Cute Is What We Aim For
-------------------------------------------------------------------------------

Tabbed By : dudester410
e-mail: drew_petahtegoose_11@hotmail.com

Tuning: Standard

K, I made this tab after hearing the song only bout 4 times so give me some credit

Intro, play somewhat through out the verse also
G|-------------------------------------------------------------------------|
D|---------------5---------------------------------------------------------|
A|------5------------------------------------------------------------------|
E|---333--333/1/3----------------------------------------------------------|

Other Verse part
G|-------------------------------------------------------------------------|
D|--------3----------------------------------------------------------------|
A|----3--------2-----------------------------------------------------------|
E|1111-111-0000-000--------------------------------------------------------|

Pre-Chorus parts
G|-------------------------------------------------------------------------|
D|-------------------------------------------------------------------------|
A|-------------------------------------------------------------------------|
E|--0-1-3------------------------------------------------------------------|

Chorus
G|-------------------------------------------------------------------------|
D|-------------------------------------------------------------------------|
A|--11111111---------------------------------------------------------------|
E|----------11111111333333333----------------------------------------------|

And on 3rd part of chorus
G|-------------------------------------------------------------------------|
D|--------------------5--5-------------------------------------------------|
A|1111111------------------------------------------------------------------|
E|-------11111111-3333-33--------------------------------------------------|

verse 2

k, this is really all pulled out of a blank for verse 2
G|-------------------------------------------------------------------------|
D|---5p3h5------------------3p1h3-------------2p0h2------------------------|
A|-------------------------------------------------------------------------|
E|-33---------------------11----------------00-----------------------------|

2nd pre-chorus  2 times
G|-------------------------------------------------------------------------|
D|---2p0h2--3p1h3--5p3h5---------------------------------------------------|
A|-------------------------------------------------------------------------|
E|-00-----11-----33--------------------------------------------------------|

bridge
G|-------------------------------------------------------------------------|
D|-------------------------------------------------------------------------|
A|-------------------------------------------------------------------------|
E|--3--33-33-33-33-33-33-11-11-111-11-00-0-0-00-00-------------------------|

G|-------------------------------------------------------------------------|
D|-------------------------------------------------------------------------|
A|-------------------------------------------------------------------------|
E|-------------------------------------------------------------------------|


| /  slide up
| \  slide down
| h  hammer-on
| p  pull-off
| ~  vibrato
| +  harmonic
| x  Mute note
===============================================================================


K, this was all made really precoise to what i wa able to hear bass-wise, and also i 
think it's 100%, more like 75%, idk, gots a lot of work to go still, if its accepted, then 
make it more accurate, thx

            
            
Suggest correction
Creating personal tab
Creating personal tab
You can edit any tab online and save it as your Personal.

You can edit, replace or remove any tab part or add personal notes – all changes will be seen only by you.

Personal tabs can be accessed anytime from any device, even offline.
Learn more »
Give kudos to tab author, rate the tab!
1 2 3 4 5
comments
print report bad tab
guest
You may want to rate the tab now too:
select rating
Wanna post a correction for this tab? Suggest correction