Oops, an error
Loading. Please wait.

Fourth Drink Instinct bass

version 1
version 1

Whole song

Interactive

1,720 views 1 this week
2 commentsread comments
1 2 3 4 5
1 last vote to show rating
add to favorites
×
Save as Personal and add changes to this tab that will be seen only by you. Learn more ›
×
You can save this tab as Personal to edit and correct it or add notes. All changes will be seen only by you. Learn more »
launch autoscroll
font size
0
reset
guitar tuner
edit
Autoscroll
slow
fast
+/-
esc
set tempo
stop
Author
Tabbed by: Valerie L.
e-mail: iloled@yahoo.com

Don't play until (0:41)
G|---------------------|
A|---------------------|
D|-0~-2~-----0~-2~-----|
E|--------0~-------0~--|

Chorus
G|-------------------------------------------------------------------|   
A|-------------------------------------------------------------------|    
D|----------------------22-2-22-2-22-2-22-2-00-0-00-0-00-0-00-0-00>>-|    
E|-00-0-00-0-00-0-00-0-----------------------------------------------| x2
end last part with open e and let it ring out

Verse:
G|--------------------------------------|
A|--------------------------------------|
D|---------------------------------2-22-|
E|-0~--0-00--5~-5-55--4~--4-44--2~------| x2

Chorus x2

Bridge
G|-------------------------|
A|-------------------------|
D|-----2~-2~-0~-0~-2~-2~---|
E|-0>>---------------------|

G|-------------------------------------|-------------------------------|
A|-------------------------------------|-------------------------------|
D|-------------------------------------|---------------0(x14)-2(x14)---|
E|-00000000-22222222-55555555-77777777-|-0(x14)-2(x14)-----------------|

Chorus and end.






            
            
Suggest correction
Creating personal tab
Creating personal tab
You can edit any tab online and save it as your Personal.

You can edit, replace or remove any tab part or add personal notes – all changes will be seen only by you.

Personal tabs can be accessed anytime from any device, even offline.
Learn more »
Give kudos to tab author, rate the tab!
1 2 3 4 5
comments
print report bad tab
2 comments total.
0 reply
Hansonator3 208 Jul 21, 2007 10:18 AM

great great great tab

0 reply
P3NGu1N 20 Nov 12, 2009 12:50 PM

my sister plays and I play guitar she'll love this ty!

guest
You may want to rate the tab now too:
select rating
Wanna post a correction for this tab? Suggest correction