Oops, an error
Loading. Please wait.

Navigate Me tab

version 1
version 1

Whole song

10,036 views 1 this week
3 commentsread comments
1 2 3 4 5
x 3
add to favorites
×
Save as Personal and add changes to this tab that will be seen only by you. Learn more ›
×
You can save this tab as Personal to edit and correct it or add notes. All changes will be seen only by you. Learn more »
launch autoscroll
font size
0
reset
how to read this tab
guitar tuner
edit
Autoscroll
slow
fast
+/-
esc
set tempo
stop
Author
Difficulty
-------------------------------------------------------------------------------
                             NAVIGATE ME - Cute Is What We Aim For
-------------------------------------------------------------------------------

Tuning: Standard

INTRO
e|---------------------------------------------------------------------------|
B|---------------------------------------------------------------------------|
G|--------5-----------------------------------------------3------------------|
D|------------5-----------6---------------5-----------3-------3--------------|
A|-3--3-3---3---3-----6-------6-------5-------5---1-1---1---1----1-----------|
E|----------------4-4---4---4---4-3-3---3---3---3----------------------------|

VERSE PART 1
e|---------------------------------------------------------------------------|
B|---------------------------------------------------------------------------|
G|-5-5-5-5-----------------3-3-3-3-------------------------------------------|
D|-5-5-5-5-6-6-6-6-5-5-5-5-3-3-3-3--x2---------------------------------------|
A|-3-3-3-3-6-6-6-6-5-5-5-5-1-1-1-1-------------------------------------------|
E|---------4-4-4-4-3-3-3-3---------------------------------------------------|

VERSE PART 2 (figure out rhythm)
e|---------------------------------------------------------------------------|
B|---------------------------------------------------------------------------|
G|-------3-----5-----------3-------------------------------------------------|
D|-6-----3-x4--5-x8--6-----3-x4--3-----3-3-3-3-3-3-3-3-----------------------|
A|-6-x4--1-----3-----6-x4--1-----3-x4--3-3-3-3-3-3-3-3-----------------------|
E|-4-----------------4-----------1-----1-1-1-1-1-1-1-1-----------------------|

CHORUS PART 1 (figure out rhythm)
e|---------------------------------------------------------------------------|
B|---------------------------------------------------------------------------|
G|-8-----3-----5-------------------------------------------------------------|
D|-8-x8--3-x8--5-x8--5-------------------------------------------------------|
A|-6-----1-----3-----5-x8----------------------------------------------------|
E|-------------------3-------------------------------------------------------|

CHORUS PART 2 (figure out rhythm)
e|---------------------------------------------------------------------------|
B|---------------------------------------------------------------------------|
G|-------3-----5-----------3------5-5-5-5-5-5-5------------------------------|
D|-6-----3-x4--5-x8--6-----3--x4--5-5-5-5-5-5-5------------------------------|
A|-6-x4--1-----3-----6-x4--1------3-3-3-3-3-3-3------------------------------|
E|-4-----------------4-------------------------------------------------------|

BRIDGE PART 1
e|---------------------------------------------------------------------------|
B|---------------------------------------------------------------------------|
G|-------5-----------5-----------5-----------5-------------------------------|
D|-3-----5-x8--3-----5-x8--3-----5-x8--3-----5-x8----------------------------|
A|-3-x8--3-----3-x8--3-----3-x8--3-----3-x8--3-------------------------------|
E|-1-----------1-----------1-----------1-------------------------------------|

BRIDGE PART 2
e|---------------------------------------------------------------------------|
B|---------------------------------------------------------------------------|
G|----------3-x-x-3--5-x-x-5-5-x-x-5-----------------------------------------|
D|-6-x-x-6--3-x-x-3--5-x-x-5-5-x-x-5--6-6-6-6-6-6-6-6------------------------|
A|-6-x-x-6--1-x-x-1--3-x-x-3-3-x-x-5--6-6-6-6-6-6-6-6------------------------|
E|-4-x-x-4----------------------------4-4-4-4-4-4-4-4------------------------|

CHORUS 2
e|---------------------------------------------------------------------------|
B|---------------------------------------------------------------------------|
G|-8~--3~--5~--------------3-x-x-3-5-x-x-5-5-x-x-5---------------------------|
D|-8~--3~--5~--5~--6-x-x-6-3-x-x-3-5-x-x-5-5-x-x-5-6-6-6-6-6-6-6-6-----------|
A|-6~--1~--3~--5~--6-x-x-6-1-x-x-1-3-x-x-3-3-x-x-3-6-6-6-6-6-6-6-6-----------|
E|-------------3~--4-x-x-4-------------------------4-4-4-4-4-4-4-4-----------|

OUTRO
e|---------------------------------------------------------------------------|
B|---------------------------------------------------------------------------|
G|-5-5-5-5-5-5-5-5-----------------------------------------------------------|
D|-5-5-5-5-5-5-5-5-----------------------------------------------------------|
A|-3-3-3-3-3-3-3-3-----------------------------------------------------------|
E|---------------------------------------------------------------------------|

SONG STRUCTURE:
Intro
Verse
Chorus
Verse
Chorus
Bridge
Chorus 2
Chorus
Outro

| /  slide up
| \  slide down
| h  hammer-on
| p  pull-off
| ~  vibrato
| +  harmonic
| x  Mute note
===============================================================================

            
            
Suggest correction
Creating personal tab
Creating personal tab
You can edit any tab online and save it as your Personal.

You can edit, replace or remove any tab part or add personal notes – all changes will be seen only by you.

Personal tabs can be accessed anytime from any device, even offline.
Learn more »
Give kudos to tab author, rate the tab!
1 2 3 4 5
comments
print report bad tab
3 comments total.
0 reply
iloveshaant21 73 Aug 04, 2008 09:04 AM

great tab!
ive waiting for this one =]
so thankss

+3 reply
djowl 219 Mar 11, 2009 10:55 AM

the intro is like so wrong haha

0 reply
ibanez shrehed 15 Oct 04, 2009 09:54 AM

lol the intro is
e-----------------------------------------------------------------
B----------8---------------------------------------------6--------
G--5---8-5----8-5-----5----8-5---8--------8-7--------7-----7-5-7-5
D------------------66---6------6---55-8-5-----8-5-88---8----------
A-----------------------------------------------------------------
E-----------------------------------------------------------------

guest
You may want to rate the tab now too:
select rating
Wanna post a correction for this tab? Suggest correction