Oops, an error
Loading. Please wait.

Risque tab

version 2
version 2

Whole song

Interactive

23,521 views 12 this week
4 commentsread comments
1 2 3 4 5
x 12
add to favorites
×
Save as Personal and add changes to this tab that will be seen only by you. Learn more ›
×
You can save this tab as Personal to edit and correct it or add notes. All changes will be seen only by you. Learn more »
launch autoscroll
font size
0
reset
how to read this tab
guitar tuner
edit
Autoscroll
slow
fast
+/-
esc
set tempo
stop
Author
-----------------------------------------------------------------------
		     RISQUE – Cute Is What We Aim For
-----------------------------------------------------------------------

Tabbed by: Stephen Adams
Email: bigsteve0788@aol.com

Tuning: Standard
* = palm mute
/ = slide
\ = slide


Intro: “I’ve got birds…”
e|--0-------0-------0-------0-----------------|
B|--0-------0-------0-------0-----------------|
G|--9-------9-------9-------9-----------------|
D|--9-------9-------7-------9-----------------|
A|--7-------7-------0-------9-----------------|
E|--0-------9---------------7-----------------|


Verse 1 Guitar 1: “Medically speaking…”
e|-------------------------------------------|
B|-----0-------0-------0---------------------|
G|-------------------------------------------|
D|---9---9---9---9---9---9---9---9-----------|x7
A|-0-----------------------------------------|
E|---------7-------0-------9---7-------------|


Verse 1 Guitar 2:
e|-------------------------------------------|
B|-------------------------------------------|
G|---9-8-9-----------8-9-13-11-9/11\9--------|
D|-------------------------------------------|
A|-------------------------------------------|
E|-------------------------------------------|


Verse 1 Guitar 1 Continued: “Pretty please”
e|-------------------------------------------|
B|-----0-------0-----------------------------|
G|-------------------99999-------------------|
D|---9---9---9---9---99999-------------------|
A|-0-----------------77777-------------------|
E|---------7---------00000-------------------|
                     *****

Chorus:
e|-------------------------------------------|
B|-------------------------------------------|
G|-9----9----9----9--------------------------|
D|-9----9—---9----9--------------------------|
A|-7----7----0----9--------------------------|
E|------9---------7--------------------------|


Verse 2 Guitar 1: 
e|-------------------------------------------|
B|-----0-------0-------0---------------------|
G|-------------------------------------------|
D|---9---9---9---9---9---9---9---9-----------|x10
A|-0-----------------------------------------|
E|---------7-------0-------9---7-------------|


Verse 1 Guitar 2:
e|-------------------------------------------|
B|-------------------------------------------|
G|---9-8-9-----------8-9-13-11--9/11\9-------|
D|-------------------------------------------|
A|-------------------------------------------|
E|-------------------------------------------|


Verse 2 Guitar 1 Continued: “…My mouth is”
e|-------------------------------------------|
B|-----0-------0-----------------------------|
G|-------------------99999-------------------|
D|---9---9---9---9---99999-------------------|
A|-0-----------------77777-------------------|
E|---------7---------00000-------------------|
                     *****

Chorus:
e|-------------------------------------------|
B|-------------------------------------------|
G|-9----9----9----9--------------------------|
D|-9----9—---9----9--------------------------|x2
A|-7----7----0----9--------------------------|
E|------9---------7--------------------------|


Bridge: “Ahh…”
e|-------------------------------------------|
B|-------------------------------------------|
G|-9----9----9----9--------------------------|
D|-9----9—---9----9--------------------------|x2
A|-7----0----7----9--------------------------|
E|-9--------------7--------------------------|


3rd Chorus:
e|-0-----0----------------------------------------|
B|-0-----0----------------------------------------|
G|-9-----9-----9999999999999999-9999999999999999--|
D|-9-----9—----7777777777777777-9999999999999999--|
A|-7-----7-----7777777777777777-9999999999999999--|
E|-------9-----5555555555555555-7777777777777777--|
	       **************** ****************


3rd Chorus Continued:
e|-------------------------------------------|
B|-------------------------------------------|
G|-9----9----9----9--------------------------|
D|-9----9—---9----9--------------------------|x2
A|-7----7----0----9--------------------------|
E|------9---------7--------------------------|


End On:
e|---------|
B|---------|
G|-9-------|
D|-9-------|
A|-7-------|
E|---------|

should be all right. 

            
            
Suggest correction
Creating personal tab
Creating personal tab
You can edit any tab online and save it as your Personal.

You can edit, replace or remove any tab part or add personal notes – all changes will be seen only by you.

Personal tabs can be accessed anytime from any device, even offline.
Learn more »
comments
print report bad tab
4 comments total. Showing first comments.
+1 reply
Julian K 82 Aug 03, 2006 08:44 AM

perfect sounds great thanks

+1 reply
Julian K 82 Aug 03, 2006 08:44 AM

perfect sounds great thanks

+1 reply
Julian K 82 Aug 03, 2006 08:44 AM

perfect sounds great thanks

guest
You may want to rate the tab now too:
select rating
Wanna post a correction for this tab? Suggest correction