Oops, an error
Loading. Please wait.

Definite Darkness chords

1,077 views 1 this week
5 commentsread comments
1 2 3 4 5
x 3
add to favorites
×
Save as Personal and add changes to this tab that will be seen only by you. Learn more ›
×
You can save this tab as Personal to edit and correct it or add notes. All changes will be seen only by you. Learn more »
launch autoscroll
font size
0
reset
transpose
0
reset
simplify chords
display chords
guitar tuner
edit
Autoscroll
slow
fast
+/-
esc
set tempo
stop
Author
Difficulty
Strumming
There is no strumming pattern for this song yet. and get +5 IQ
Intro: F C D x3

 F               C        -         D              F
Bring me to the world of guilt and sorrow for the races tonight
           F                       C         -        D         F
Where the boats go cutting through undulating mirror images of incandescent spires
     F                 C      -     D              F
The roads there are parabolas with nameless water towers near the exits
           F                        C     -     D               F
You-could-turn it all on end still wouldn't be taller than the biotic arch at the crown of creation

Am    -    G      -       F
There are people who put dirty hypodermic needles
Am    -      G      -     F
Between the seat cushions in the movie theaters
Am   -  G   -    F               D                      F
We all have the same dream the night that we contract it...

C                            F
So maybe I've been sleeping less at your place
            C                            F
Since that man's last panicked screams startled us awake
 C                      Am
We're paralyzed as the cop cars arrived
F             -Am           G             C                     F
Casting slow-spinning mobiles on your ceiling, three colors we watched the frozen moon
C                    Am
In daylight I stare past your eyes' lenses
F        -Am     G                   C               F
Windows framing solar wind rustling ivy on painted pink buildings

            F          C      -      D        F
I've been hearing the soft step of gray-eyed governess
            F                         C       -        D                     F
But I know you know the physical form of the moaning alarms coming from the Air Force base
    F           C    -   D           F
A skinless and sinewy leviathan all terrible contraction and release
 F-Am                        G                  C            F
Debasement ringed in banner plane exhaust and scattering V's, of geese 

Outro: F Am G C F  Am D/F#   

(F C D7 F)  (Am F C)x4  Am D/F# F  (G F)x3  (C Am F C) repeat fade
Ohhh....

            
            
Suggest correction
Creating personal tab
Creating personal tab
You can edit any tab online and save it as your Personal.

You can edit, replace or remove any tab part or add personal notes – all changes will be seen only by you.

Personal tabs can be accessed anytime from any device, even offline.
Learn more »
Give kudos to tab author, rate the tab!
1 2 3 4 5
comments
print report bad tab
5 comments total. Showing first comments.
+1 reply
VRattleheadDeth 38 Mar 19, 2014 09:20 AM

Intro solo is as follows:

e:---------------------------------------------------------------------17
B:-----------------------------------------------------------------------
G:------------------------------------------------------12-14-12-14-12-14
D:--------------------------------17-17-17-17-16-16-16-------------------
A:-----------------------------------------------------------------------
E:-13-15-16-16^(1/2)~-16(br)-15------------------------------------------

+2 reply
VRattleheadDeth 38 Mar 19, 2014 09:23 AM

And the main riff goes like this:

e:------------------------------------------
B:------------------------------------------
G:-----2---2-0------------------------------
D:------------------------------------------
A:---3---3-----3----------------------------
E:-1----------------------------------------


Also the D chord should be played by shifting the C up two frets like this:
e:--0-
B:--3-
G:--0-
D:--4-
A:--5-
E:----

0 reply
VRattleheadDeth 38 Mar 19, 2014 09:24 AM

And the main riff goes like this:

e:------------------------------------------
B:------------------------------------------
G:-----2---2-0------------------------------
D:------------------------------------------
A:---3---3-----3----------------------------
E:-1----------------------------------------


Also the D chord should be played by shifting the C up two frets like this:
e:--0-
B:--3-
G:--0-
D:--4-
A:--5-
E:----

guest
You may want to rate the tab now too:
select rating
Wanna post a correction for this tab? Suggest correction