Oops, an error
Loading. Please wait.

Jackson bass

413 views 3 this week
no commentswrite comment
1 2 3 4 5
1 last vote to show rating
add to favorites
×
Save as Personal and add changes to this tab that will be seen only by you. Learn more ›
×
You can save this tab as Personal to edit and correct it or add notes. All changes will be seen only by you. Learn more »
launch autoscroll
font size
0
reset
guitar tuner
edit
Autoscroll
slow
fast
+/-
esc
set tempo
stop
Author
Standard Tuning



Part A
G|--------------------------------------------------------
D|--------------------------------------------------------
A|--------------------------------------------------------
E|--14--14--14----14--14--14----14--14--14----14--14--16--



G|--------------------------------------------------------
D|------------------------------------------------14--16--
A|--12--12--12----12--12--12----12--12--12----12----------
E|--------------------------------------------------------



Part B 
G|--------------------------------------------------
D|------13--14------13--14------13--14------13--14--
A|--12----------------------12----------------------
E|--------------12----------------------12----------

When the lyrics start, the length between the 12s and 13s is longer.


Part C
G|--------------------------
D|--------------------------
A|--14------14--13------13--
E|------14----------14------

Part D
G|----------------------------------------------------------
D|----------------------------------------------------------
A|--14--13--12--12--12--12--12--12--------------------------
E|----------------------------------12--12--12--12--12--12--

G|--------------------------------------------------
D|--------------------------------------------------
A|--12--12--12--12--12--12--------------------------
E|--------------------------12--12--12--12--12--12--


Part E
G|--------------------------------------------------------------------------
D|--------------------------------------------------------------------------
A|--12--12--12--12----------------------------------14--14--14--14--14--14--
E|------------------16--14--12--12--12--12--14--16--------------------------

Part F
G|------------------------------------------------------------------
D|------------------------------------------------------------------
A|--4--4--4--4--4--4--3--3--3---------------------------------------
E|-----------------------------0--------5--------0------5--2-----0--

Part G
G|------------------------------------------------
D|-----13--14------13--14-----13--14------13--14--
A|------------------------------------------------
E|--0----------12----------0----------12----------


Intro and Verse: 
Part A x 4
Part B x2 
Slow Part B x2
Part D x2
Slow Part B x2
Part D x2
Slow Part B x2
Part D x2
End on 14 on the A going into the chorus

Chorus:
Part E&C (play Part C after part E) x4
Part F x1

Second Verse
Same as Verse 1 except the E and A parts are played like in Part D, as eight notes
with part C between them

Chorus:
Part F x2
Part E&C x4
Part G x1
Two measures of 12 on the A string
Part G x1
Part A x4

Solo
Part E&C until End
End on 12 on the E string






            
            
Suggest correction
Creating personal tab
Creating personal tab
You can edit any tab online and save it as your Personal.

You can edit, replace or remove any tab part or add personal notes – all changes will be seen only by you.

Personal tabs can be accessed anytime from any device, even offline.
Learn more »
Give kudos to tab author, rate the tab!
1 2 3 4 5
comments
print report bad tab
guest
You may want to rate the tab now too:
select rating
Wanna post a correction for this tab? Suggest correction