Oops, an error
Loading. Please wait.

Place Names bass

366 views 3 this week
no commentswrite comment
1 2 3 4 5
2 more votes to show rating
add to favorites
×
Save as Personal and add changes to this tab that will be seen only by you. Learn more ›
×
You can save this tab as Personal to edit and correct it or add notes. All changes will be seen only by you. Learn more »
launch autoscroll
font size
0
reset
guitar tuner
edit
Autoscroll
slow
fast
+/-
esc
set tempo
stop
Tabbed from their KEXP performance
Capo 2
Tab relative to capo

Bass comes in after "I could hit the floor soon myself"


On Part A, every fourth time hold the 18 longer than normal

Part A
G|--6-----7-----8--18--17--16----------17--16--------------|
D|-----------------------------17--------------17----------|
A|-----0-----0---------------------15--------------15--14--|
E|---------------------------------------------------------|

Part B
G|------------------------------------------------------------------------------|
D|----------14--15--14--------------14--15--14----------------------------------|
A|----------------------15--12--12--------------13--15--15--15--15--15----------|
E|--13--13--------------------------------------------------------------13--13--|

Part C
G|------------------------------------------------------------------|
D|------------------------------------------------------------------|
A|------------------------------12----------------------------------|
E|--13--13--13--13--13--13--13------10--10--10--10--10--10--10--10--|


Part A x6
Part B x5
Part C x4
Part A x6
Part B x4
Part C x4
Part A x10

Possibly a lower octave version of Part C with each note played 16 times x4

Part B until the end
End on 13 on the E string

            
            
Suggest correction
Creating personal tab
Creating personal tab
You can edit any tab online and save it as your Personal.

You can edit, replace or remove any tab part or add personal notes – all changes will be seen only by you.

Personal tabs can be accessed anytime from any device, even offline.
Learn more »
Give kudos to tab author, rate the tab!
1 2 3 4 5
comments
print report bad tab
guest
You may want to rate the tab now too:
select rating
Wanna post a correction for this tab? Suggest correction