Oops, an error
Loading. Please wait.

Tequila Sunrise tab

version 1
version 1

Whole song

Interactive

65,057 views 108 this week
2 commentsread comments
1 2 3 4 5
x 16
add to favorites
×
Save as Personal and add changes to this tab that will be seen only by you. Learn more ›
×
You can save this tab as Personal to edit and correct it or add notes. All changes will be seen only by you. Learn more »
launch autoscroll
font size
0
reset
how to read this tab
guitar tuner
edit
Autoscroll
slow
fast
+/-
esc
set tempo
stop
Author
Cypress Hill
Tequila Sunrise

Am : 002210
Dm : XX0231

 [Intro]
   ~                    ~                   ~
e|-0-------------3-5-7-8-7-5h7p5----------------------------|
B|-1-5h6p5-3-5-6-----------------6-8-6-5h6p5-3-5h6p5-3-1-0--|
G|-2--------------------------------------------------------|
D|-2--------------------------------------------------------|
A|-0--------------------------------------------------------|
E|----------------------------------------------------------|
                 ~             ~     ~
e|---------0-----1---1---------------0-------------12....12-|
B|-------1---1---3-----3-------3---3-1-5h6p5-3-1------------|
G|-----2-------2-2-2-----2-------2---2-----------2----------|
D|-2-2-----------0---------(0)-------2----------------------|
A|-0---------------------------------0----------------------|
E|-0--------------------------------------------------------|
         ~       ~
e|-8-7h8p7-5-7-8-----------------0-0-0---0-1-3-3-1-3-0------|
B|---------------6-(6)-5h6p5-(3)-1-----1---3---------1------|
G|-------------------------------2---------2---------3------|
D|-------------------------------2---------0---------2------|
A|-------------------------------0-------------------0------|
E|----------------------------------------------------------|

 [Main Riff]
   Am       Dm        Am        Dm
e|-0-0-0---0-1-3-3-1-3-0-0-0---0-1-3-3-1-3-|
B|-1-----1---3---------1-----1---3---------|
G|-2---------2---------2---------2---------|
D|-2---------0---------2---------0---------|
A|-0-------------------0-------------------|
E|-----------------------------------------|


*********************************************************

| ~         let ring the string
| 12...12   play the note lot of time and rapidly

*********************************************************

            
            
Suggest correction
Creating personal tab
Creating personal tab
You can edit any tab online and save it as your Personal.

You can edit, replace or remove any tab part or add personal notes – all changes will be seen only by you.

Personal tabs can be accessed anytime from any device, even offline.
Learn more »
comments
print report bad tab
2 comments total.
0 reply
shaunm51 10 Apr 08, 2008 09:30 AM

hey ,what does the H and P etc.. mean after the notes ?

+1 reply
ddvorszki92 10 May 12, 2013 01:57 AM

h is hammer on
p is pull off

guest
You may want to rate the tab now too:
select rating
Wanna post a correction for this tab? Suggest correction