Oops, an error
Loading. Please wait.

Unconscious tab

version 1
version 1

Whole song

Interactive

8,764 views 12 this week
4 commentsread comments
1 2 3 4 5
x 10
add to favorites
×
Save as Personal and add changes to this tab that will be seen only by you. Learn more ›
×
You can save this tab as Personal to edit and correct it or add notes. All changes will be seen only by you. Learn more »
launch autoscroll
font size
0
reset
how to read this tab
guitar tuner
edit
Autoscroll
slow
fast
+/-
esc
set tempo
stop
This Is My First Tab So Excuse Me If There Are Mistakes c:

Tuning: Standard

Intro verse:
when did the world turn cold...
----------------------------------------­--------------------------|
----------------------------------------­--------------------------|
---------------------------------1------­--------3-----------------|
-----4----4------4----4--------------4--­-----------4--------------|         Reapeat
--2----2---------------------4----4-----­---6----6-----------------|
---------------2-----2------------------­--------------------------|

Bridge:
Hell is empty, all the devils....
----------------------------------------­--------------------|
----------------------------------------­--------------------|
--4---------6----8----6----------------­---------------------|
--4----4----6----8----6------then repeat---------------------|
--2----4----4----6----4-----------------­--------------------|
-------2-------------------------------­---------------------|

Chorus:
Sometimes we think....
----------------------------------------­--------------------|
----------------------------------------­--------------------|
--------6-----8-----4----------------­-----------------------|
--4-----4------8------4-----------------­--------------------|
--4-----4------6------2-----------------­--------------------|
--2-------------------------------------­--------------------|

2nd Verse:
No we won't sell our souls...
----------------------------------------­--------------------|
----------------------------------------­--------------------|
---------------------------------1------­--------3-----------|
-----4----4------4----4--------------4--­-----------4--------|
--2----2---------------------4----4-----­---6----6-----------|
---------------2-----2------------------­--------------------|

Instrumental bit:
----------------------------------------­----------|
----------------------------------------­----------|
-----------3-------------------3--------­----------|
-----4-------4-(x2)----2--------2-(x2)--­----------|
--2----2--------------------------------­----------|
---------------------2-----2------------­----------|

----------------------------------------­-----------|
----------------------------------------­-----------|
-------3--------------------------------­-----------|
---4------4-(x2)--------------3----4--3-­-----------|
6----6---------------------4----4-------­-4---------|
----------------------------------------­-----------|

The strumming part that goes on during the solo part:
----------------------------------------­--------------------|
----------------------------------------­--------------------|
---4------------8-----6----------------­---------------------|
---4-----4------8-----6-----------------­--------------------|
---2-----4------6-----4-----------------­--------------------|
---------2-----------------------------­---------------------|

For the solo part it's just 6-4-1-2---9-| on the high e string
--6-4-1-2---9---------------------------| (Repeat As Necessary)
----------------------------------------|
----------------------------------------|
----------------------------------------|
----------------------------------------|

I won't let my heart turn cold...
----------------------------------------­--------------------|
----------------------------------------­--------------------|
---------3--------3---------------------­--------------------|
------4--------4-----------4----4-------­--------------------|
---2--------------------4----4----------­--------------------|
-------------2--------------------------­--------------------|


Chorus:
Sometimes we think....
----------------------------------------­--------------------|
----------------------------------------­--------------------|
--------6------8------4----------------­---------------------|
--4-----4------8------4-----------------­--------------------|
--4-----4------6------2-----------------­--------------------|
--2-------------------------------------­--------------------|

            
            
Suggest correction
Creating personal tab
Creating personal tab
You can edit any tab online and save it as your Personal.

You can edit, replace or remove any tab part or add personal notes – all changes will be seen only by you.

Personal tabs can be accessed anytime from any device, even offline.
Learn more »
comments
print report bad tab
4 comments total. Showing first comments.
0 reply
apa8631 10 Jun 01, 2013 12:08 PM

It sounds good. Only thing i will say is that i play
6 4
4 4
instead of
1
4
4 4
exact same but easier to play for people with small hands =)

+1 reply
Pvt Pancake 698 Jul 04, 2013 09:04 PM

I think that this song is actually half a step down. It certainly sounds like it because it would make some parts of the song a lot easier

+3 reply
Pvt Pancake 698 Jul 05, 2013 08:10 PM

Intro verse:
when did the world turn cold...
----------------------------------------­--------------------------|
----------------------------------------­--------------------------|
----------0-----------0---------------0-­-----------0--------------|
-----5-----------5---------------7----­--------9-------------------|
--3----3---------------------5------5--­---7------7----------------|
---------------3----3------------------­---------------------------|

Bridge:
Hell is empty, all the devils....
----------------------------------------­--------------------|
----------------------------------------­--------------------|
--5---------7----9----7----------------­---------------------|
--5----5----7----9----7------then repeat--------------------|
--3----5----5----7----5-----------------­--------------------|
-------3-------------------------------­---------------------|

Chorus:
Sometimes we think....
----------------------------------------­--------------------|
----------------------------------------­--------------------|
--------7------9------5--------------­-----------------------|
--5-----7------9------5-----------------­--------------------|
--5-----5------7------3-----------------­--------------------|
--3-------------------------------------­--------------------|

2nd Verse:
No we won't sell our souls...
----------------------------------------­--------------------------|
----------------------------------------­--------------------------|
----------0-----------0---------------0-­-----------0--------------|
-----5-----------5---------------7----­--------9-------------------|
--3----3---------------------5------5--­---7------7----------------|
---------------3----3------------------­---------------------------|

Instrumental bit:
----------------------------------------­----------|
-----------0----------------------------­----------|
-------------------------------3--------­----------|
-----5---------5(x2)----2--------2-(x2)--­----------|
--3----3-----3---------------------------­----------|
---------------------2-----2------------­----------|

----------------------------------------­-----------|
-------0--------------------------------­-----------|
-----------------------------------0----­-----------|
---5------5-- -5(x2)----------4-------4-­-----------|
---------------------------5----5-------­-5---------|
0----0------0----------------------------­----------|

The strumming part that goes on during the solo part:
----------------------------------------­--------------------|
----------------------------------------­--------------------|
---5------------9-----7----------------­---------------------|
---5-----5------9-----7-----------------­--------------------|
---3-----5------7-----5-----------------­--------------------|
---------3-----------------------------­---------------------|

For the solo part it's just
--7-------10---------------------------| (Repeat As Necessary)
----8-10-------------------------------|
---------------------------------------|
---------------------------------------|
---------------------------------------|
---------------------------------------|
I won't let my heart turn cold...
----------------------------------------­--------------------|
---------0--------0---------------------­--------------------|
---------------------------------0------­--------------------|
------5--------5-----------4------------­--------------------|
---3--------------------5----5----------­--------------------|
-------------3--------------------------­--------------------|

Chorus:
Sometimes we think....
----------------------------------------­--------------------|
----------------------------------------­--------------------|
--------7------9------5--------------­-----------------------|
--5-----7------9------5-----------------­--------------------|
--5-----5------7------3-----------------­--------------------|
--3-------------------------------------­--------------------|

guest
You may want to rate the tab now too:
select rating
Wanna post a correction for this tab? Suggest correction