Oops, an error
Loading. Please wait.

Around The World bass

version 3
version 3

Whole song

Interactive

126,685 views 102 this week
3 commentsread comments
1 2 3 4 5
x 6
add to favorites
×
Save as Personal and add changes to this tab that will be seen only by you. Learn more ›
×
You can save this tab as Personal to edit and correct it or add notes. All changes will be seen only by you. Learn more »
launch autoscroll
font size
0
reset
guitar tuner
edit
Autoscroll
slow
fast
+/-
esc
set tempo
stop
Author
Unregistered
Title: Around The World
Artist: Daft Punk
Instrument: Bass
Tabbed by: Keith D Pearson (keith.pearson@umit.maine.edu)
Previously tabbed by: Jonathan Martinez (emokid951@yahoo.com)
Tuning: Standard (E A D G)
To see my other tabs, go to www.umit.maine.edu/~keith.pearson/basstabs.mht

A very cool song, and easy to play once you get the fingering down on riff 3.
I will credit Jonathan Martinez because it was his tab that I originally looked at to
learn the song, and though he got most of the notes correct, some of the frets he chose
for riff 3 made it near impossible to play.

Riff 1

G|----------------|----------------|----------------|----------------|
D|4*2*0*----------|4*2*0*----------|4*2*0*----------|4*2*0*----------|
A|------3*2*0*----|------3*2*0*----|------3*2*0*----|------3*2*0*----|
E|------------3--0|------------3--0|------------3--0|------------3--0|
B|----------------|----------------|----------------|----------------|
  1 a 2 a 3 a 4 a  1 a 2 a 3 a 4 a  1 a 2 a 3 a 4 a  1 a 2 a 3 a 4 a  

Riff 2

G|-----------------|-----------------|----------------|----------------|
D|-----------------|--------------0-2|*---2*--2*--2*--|4*2*0*----------|
A|0*--0*--0*--0*2-3|*---3*--3*--3*---|----------------|------3*2*0*----|
E|-----------------|-----------------|----------------|------------3--0|
B|-----------------|-----------------|----------------|----------------|
  1 a 2 a 3 a 4 a   1 a 2 a 3 a 4 a   1 a 2 a 3 a 4 a  1 a 2 a 3 a 4 a  

Riff 3

I'll include the fingerings I find are easiest.

    R I R  I R I I I R I R  IR I M M P I/I  R I R I R I R I I R
G|--7-9*-7-9*7*7-7-9|--------------------|--7-9*7-9*7-9*7-7-9|
D|------------------|--10--10------10-7/5|-------------------|
A|7-----------------|--------------------|7------------------|
E|------------------|8*---8--8*7-7*------|-------------------|
B|------------------|--------------------|-------------------|
  1 a 2 a 3 a 4  a   1 a  2  a 3  a  4 a  1 a 2 a 3 a  4  a   

    I R  IR I M M I/I
G|------------------|
D|--10--10------7/5-|
A|------------------|
E|8*---8--8*7*7*----|
B|------------------|
  1 a  2  a 3 a 4 a

************************************

/ = Slide down
* = short noteI = Index
M = Middle
R = Ring
P = Pinky
T = Thumb

************************************

            
            
Suggest correction
Creating personal tab
Creating personal tab
You can edit any tab online and save it as your Personal.

You can edit, replace or remove any tab part or add personal notes – all changes will be seen only by you.

Personal tabs can be accessed anytime from any device, even offline.
Learn more »
comments
print report bad tab
3 comments total.
0 reply
CAPTAINBEEFHEAR 167 Apr 04, 2012 01:53 PM

I think then slide in the second part of the bridge is 9/5 not 7/5

0 reply
CAPTAINBEEFHEAR 167 Apr 04, 2012 01:55 PM

I rescind previous comment on the grounds that I was talking shite. Both sound OK though for a bit of variation.

0 reply
nassim.mudib 10 Jul 10, 2013 11:17 AM

for the solo you can also do

G--9-9--7-9--7-9--7-9------------------------------------------------------
D.-----------------------10-10--9-10--9-10---------------------------------
A.-----------------------------------------10------------------------------
E--------------------------------------------------------------------------

----9-9--7-9--7-9--7-9--12-12--11-9-11----------/
-----------------------------------------------./
-----------------------------------------------./
------------------------------------------------/

guest
Wanna post a correction for this tab? Suggest correction