Oops, an error
Loading. Please wait.

Human After All bass

version 1
version 1

Whole song

Interactive

7,552 views 1 this week
4 commentsread comments
1 2 3 4 5
x 5
add to favorites
×
Save as Personal and add changes to this tab that will be seen only by you. Learn more ›
×
You can save this tab as Personal to edit and correct it or add notes. All changes will be seen only by you. Learn more »
launch autoscroll
font size
0
reset
guitar tuner
edit
Autoscroll
slow
fast
+/-
esc
set tempo
stop
-----------------------------------------------------------------------------
			     Human After All - Daft Punk
-----------------------------------------------------------------------------

Tabbed By : Keith D Pearson
e-mail: Keith.pearson@umit.maine.edu

Tuning: normal

The bass line for guitar one is not necessary, and is not necessary to play on a bass.
However it can be played on a five string bass with standard tuning. The bass line for
guitar two can be played on a four string in standard tuning.

Guitar #1 (There are lots of small variations that you could add in to make it sound
more like the song. Likewise the part in parenthesis "(2222)" isn't played every time)

G---------------|---------------|---------------|---------------|
D---------------|---------------|---------------|---------------|
A-2-2-----2-2---|-2-2-----2-2(2222)-------------|---------------|
E---------------|---------------|---------------|---------------|
B---------------|---------------|-3-3-----3-3---|-3-3-----3-3---|
  1 a 2 a 3 a 4 a 1 a 2 a 3 a 4 a 1 a 2 a 3 a 4 a 1 a 2 a 3 a 4 a

G---------------|---------------|---------------|---------------|
D---------------|---------------|---------------|---------------|
A---------------|---------------|---------------|---------------|
E---------------|---------------|-3-3-----3-3---|-5-5-----5-5---|
B-5-5-----5-5---|-5-5-----5-5---|---------------|---------------|
  1 a 2 a 3 a 4 a 1 a 2 a 3 a 4 a 1 a 2 a 3 a 4 a 1 a 2 a 3 a 4 a



Guitar #2 (Starts in at the last bar of guitar # 1's line)

First riff
G---------------|-9-11 9---------|---------------|-7-9- 7---------|
D-------------9-11---- ----------|-------------7-9----- ----------|
A---------9-11--|----- ----------|-----------9---|----- ----------|
E---------------|----- ----------|---------------|----- ----------|
  1 a 2 a 3 a 4 a 1 a  2 a 3 a 4 a 1 a 2 a 3 a 4 a 1 a  2 a 3 a 4 a

G---------------|-9-11 12--------|-----------------9-11 9---------|
D-------------9-11---- ----------|-------------9-11---- ----------|
A---------9-11--|----- ----------|-----------11--|----- ----------|
E---------------|----- ----------|---------------|----- ----------|
  1 a 2 a 3 a 4 a 1 a  2 a 3 a 4 a 1 a 2 a 3 a 4 a 1 a  2 a 3 a 4 a

Second riff
G---------------|---------------|---------------|---------------|
D---------------|-2-4-2---------|---------------|-0-2-0---------|
A-------------2-4---------------|-------------0-2---------------|
E---------2-4---|---------------|-----------2---|---------------|
  1 a 2 a 3 a 4 a 1 a 2 a 3 a 4 a 1 a 2 a 3 a 4 a 1 a 2 a 3 a 4 a

G---------------|---------------|---------------|---------------|
D---------------|-2-4-5---------|-----------------2-4-2---------|
A-------------2-4---------------|-------------2-4---------------|
E---------2-4---|---------------|-----------4---|---------------|
  1 a 2 a 3 a 4 a 1 a 2 a 3 a 4 a 1 a 2 a 3 a 4 a 1 a 2 a 3 a 4 a

            
            
Suggest correction
Creating personal tab
Creating personal tab
You can edit any tab online and save it as your Personal.

You can edit, replace or remove any tab part or add personal notes – all changes will be seen only by you.

Personal tabs can be accessed anytime from any device, even offline.
Learn more »
comments
print report bad tab
4 comments total. Showing first comments.
-1 reply
jApAn 10 Aug 05, 2006 01:59 PM

Do you think you could possible tab for a 4 string bass for me? thanks.

+1 reply
Skruzz 129 Oct 28, 2007 06:22 AM

this would be roughly the same on your 4-string haha.

+1 reply
arg_zombies 399 Feb 14, 2009 08:47 AM

First riff
G---------------|-9-11 9---------|---------------|-7-9- 7---------|
D-------------9-11---- ----------|-------------7-9----- ----------|
A---------9-11--|----- ----------|-----------9---|----- ----------|
E---------------|----- ----------|---------------|----- ----------|
1 a 2 a 3 a 4 a 1 a 2 a 3 a 4 a 1 a 2 a 3 a 4 a 1 a 2 a 3 a 4 a

G---------------|-9-11 12--------|---------------|-7-11 9---------|
D-------------9-11---- ----------|-------------7-9----- ----------|
A---------9-11--|----- ----------|-----------9---|----- ----------|
E---------------|----- ----------|---------------|----- ----------|
1 a 2 a 3 a 4 a 1 a 2 a 3 a 4 a 1 a 2 a 3 a 4 a 1 a 2 a 3 a 4 a

guest
You may want to rate the tab now too:
select rating
Wanna post a correction for this tab? Suggest correction