Oops, an error
Loading. Please wait.
We have an official Instant Crush tab made by UG professional guitarists. Check out the tab »
×
904 views 1 this week
no commentswrite comment
1 2 3 4 5
3 more votes to show rating
add to favorites
×
Save as Personal and add changes to this tab that will be seen only by you. Learn more ›
×
You can save this tab as Personal to edit and correct it or add notes. All changes will be seen only by you. Learn more »
launch autoscroll
font size
0
reset
guitar tuner
edit
Autoscroll
slow
fast
+/-
esc
set tempo
stop
Author
Difficulty
-------------------------------------------------------------------------------
                             INSTANT CRUSH - Daft Punk
-------------------------------------------------------------------------------
Tabbed by: wbalston
My favorite off Random Access Memories. Comment with any questions or corrections.

Tuning: Drop D#

Intro x1 (play each note 16 times)

G|------------------------------------------------------------------------------|
D|-4--1--------4----------------------------------------------------------------|
A|-------1--------6-------------------------------------------------------------|
D#|----------5------------------------------------------------------------------|

Verse x3 (begins with lyrics)
(play each note 16x)

G|---------------------------------------------------------------------------------|
D|---------------------------------------------------------------------------------|
A|----------6----------------------------------------------------------------------|
D#|-7--5--3------------------------------------------------------------------------|

Prechorus x1 ("I listened to your problems, now listen to mine...")
(play each 16x)

G|--------------------------------------------------------------------------------|
D|--------------------------------------------------------------------------------|
A|--------------------------------------------------------------------------------|
D#|-7--5--------------------------------------------------------------------------|

Chorus x4 (The 6 on D string isn't used every time through the chorus, listen for it)

G|---------------------------------------------------------------------------|
D|--------------------------------------------------6------------------------|
A|---------------------------------------------------------------------------|
D#|--7-5h7-5--7--5--3~----0--3--1--0~----0--3--7--5~-5~--3355----------------|


Prechorus x1 ("Some more again...")
Verse x4 ("It doesn't matter what they wanted to see..." continues through solo)
Prechorus x1
Chorus x6
Rest for almost 2 chorus lengths, and enter again with D#|--3355--|, then play chorus 
until the end.


| /  slide up
| \  slide down
| h  hammer-on
| p  pull-off
| ~  vibrato
| +  harmonic
| x  Mute note
===============================================================================

            
            
Suggest correction
Creating personal tab
Creating personal tab
You can edit any tab online and save it as your Personal.

You can edit, replace or remove any tab part or add personal notes – all changes will be seen only by you.

Personal tabs can be accessed anytime from any device, even offline.
Learn more »
Give kudos to tab author, rate the tab!
1 2 3 4 5
comments
print report bad tab
guest
You may want to rate the tab now too:
select rating
Wanna post a correction for this tab? Suggest correction