Oops, an error
Loading. Please wait.

Cant Say No chords

12,022 views 48 this week
1 commentread comment
1 2 3 4 5
x 10
add to favorites
×
Save as Personal and add changes to this tab that will be seen only by you. Learn more ›
×
You can save this tab as Personal to edit and correct it or add notes. All changes will be seen only by you. Learn more »
launch autoscroll
font size
0
reset
transpose
0
reset
simplify chords
display chords
guitar tuner
edit
Autoscroll
slow
fast
+/-
esc
set tempo
stop
Author
Difficulty
Strumming
There is no strumming pattern for this song yet. and get +5 IQ
Tabbed By: michaeljtomey
email me for any questions at michaeljtomey@gmail.com

[Chords Used]
      D      Asus4     G       Bm
e|----2--------0-------3--------2--------|
b|----3--------3-------3--------3--------|
g|----2--------2-------0--------4--------|
d|----0--------2-------0--------4--------|
a|----0--------0-------2--------2--------|
e|---------------------3-----------------|

Can't Say No
Dan + Shay

CAPO 3

Guitar I: 
        D           Asus4       G          Asus4         (x2)
e|:|------2---2-------------------------------------------|:|
b|:|------3---3-------3---3-------3---3-------3---3-------|:|
g|:|------2---2-------2---2-------0---0-------2---2-------|:|
d|:|----0-------------2---2-------0---0-------2---2-------|:|
a|:|--------X-------0---X-----------X-------0---X---------|:|
e|:|--------X-----------X-------3---X-----------X---------|:|

Guitar II: 
e|--------------------------------------------------------|
b|-------------------------3/5\3--------------------------|
g|-------------------0--2--2/4\2--2h4\2-------------------|
d|----------------4---------------------------------------|
a|--------------------------------------------------------|
e|--------------------------------------------------------|

e|--------------------------------------------------------|
b|-------------------------3/5--5h7--5\3------------------|
g|-------------------0--2--2/4--4----4\2------------------|
d|----------------4---------------------------------------|
a|--------------------------------------------------------|
e|--------------------------------------------------------|

[Intro]
D - Asus4 - G - Asus4 
D - Asus4 - G - Asus4

            D      Asus4
It's seven AM baby
                G                Asus4
Trying to catch up on a little sleep
             D        Asus4
Its way to early baby
               G                Asus4
For you to be crawling all over me

     G                   G
Next thing you know were driving round
      Asus4           Asus4
She's dragging me all over town
G                          G                     Asus4     Asus4
Ain't no other girl in the world that can do me like that

    D - Asus4 - G              Asus4
She knows how to work them cut off things
    D - Asus4 - G              Asus4
She knows how to get me to do about anything
       D               Asus4                   G                    Asus4
How to bat those eyes, swing them hips, how to rock that cherry red lipstick
   Bm - Asus4 - G
She knows I can't say no

D - Asus4 - G - Asus4 
D - Asus4 - G - Asus4

     D - Asus4             G        Asus4
Yeah baby thats all about all I can say
            D      Asus4               G           Asus4
Whatever you want baby, as long as you kiss me that way

   G              G
My heart of stone melts in her hands
    Asus4           Asus4
I'm getting used to changing plans
G                          G                     Asus4     Asus4
Ain't no other girl in the world that can do me like that

    D - Asus4 - G              Asus4
She knows how to work them cut off things
    D - Asus4 - G              Asus4
She knows how to get me to do about anything
       D               Asus4                   G                    Asus4
How to bat those eyes, swing them hips, how to rock that cherry red lipstick
   Bm - Asus4 - G
She knows I can't say no

G                G
No to that smile
Asus4      Asus4
No to that kiss
G               G       Asus4 - Asus4
No I just can't resist, Yeah

D - Asus4 - G - Asus4 
D - Asus4 - G - Asus4
D - Asus4 - G - Asus4 
D - Asus4 - G - Asus4

     G                    G                    Asus4                Asus4
Yeah I could be out there with the boys, but as soon as I hear that little voice
G         G
I'm gone
         Asus4      Asus4
Yeah I'm gone baby

    D - Asus4 - G              Asus4
She knows how to work them cut off things
    D - Asus4 - G              Asus4
She knows how to get me to do about anything
       D               Asus4                   G                    Asus4
How to bat those eyes, swing them hips, how to rock that cherry red lipstick
   Bm - Asus4 - G
She knows I can't say no

D - Asus4 - G - Asus4 
Can't say no
D - Asus4 - G - Asus4 
Mmmmmm
D - Asus4 - G - Asus4 
Can't say no
D - Asus4 - G - Asus4 - D
I can't say no


************************************

| /   slide up
| \   slide down
| h   hammer-on
| p   pull-off
| x   thumb slap

************************************

            
            
Suggest correction
Creating personal tab
Creating personal tab
You can edit any tab online and save it as your Personal.

You can edit, replace or remove any tab part or add personal notes – all changes will be seen only by you.

Personal tabs can be accessed anytime from any device, even offline.
Learn more »
comments
print report bad tab
1 comment total.
0 reply
jtmaden 10 Oct 25, 2015 01:20 PM

Dann good! Sounds just like the song. Atleast guitar I does

guest
You may want to rate the tab now too:
select rating
Wanna post a correction for this tab? Suggest correction