Oops, an error
Loading. Please wait.

Alex English intro tab

version 1
version 1

Intro

Whole song

Interactive

19,899 views 3 this week
5 commentsread comments
1 2 3 4 5
x 3
add to favorites
×
Save as Personal and add changes to this tab that will be seen only by you. Learn more ›
×
You can save this tab as Personal to edit and correct it or add notes. All changes will be seen only by you. Learn more »
launch autoscroll
font size
0
reset
how to read this tab
guitar tuner
edit
Autoscroll
slow
fast
+/-
esc
set tempo
stop
Guitar 1
_________________________________________________________________________
E------------------------------------------------------------------------|
B---9---9---9---9---9---9---10---10---9---9---9---9---7---7---7---7------|
G-6---6---6---6---6---6---6----6----6---6---6---6---6---6---6---6--------|
D------------------------------------------------------------------------|x2
A------------------------------------------------------------------------|
D------------------------------------------------------------------------|

Guitar 2
_________________________________________________________________________
E-----9--12--14-------------7----------------------7-------------7h9-----|
B---9-----------12--14\---------9-7-7h9--------9-------------9-------7h9-|
G-6-----------------------9---6--------------9---9---9-----9---9---------|
D----------------------------------------7-9-----------7-9---------------|
A------------------------------------------------------------------------|
D------------------------------------------------------------------------|



That's all I know, this is my first tab and i'm 95% sure this is right.
Please rate and let me know how I did.

            
            
Suggest correction
Creating personal tab
Creating personal tab
You can edit any tab online and save it as your Personal.

You can edit, replace or remove any tab part or add personal notes – all changes will be seen only by you.

Personal tabs can be accessed anytime from any device, even offline.
Learn more »
Give kudos to tab author, rate the tab!
1 2 3 4 5
comments
print report bad tab
5 comments total. Showing first comments.
0 reply
SGxMastodonxSG 110 Jul 05, 2008 12:02 AM

For Will's part (guitar 2), I'm pretty sure there's a slide in the second half of that riff where you have it going up to the 9th fret on the B and the 7th fret on the E. Also, I like to play the 9's and 10's in Guitar 1's part on the e string as 4's and 5's. Easier, and probably what Zac does, dunno. Anyway, the notes pretty much seem correct, so sweet job. Hopefully I can give tabbing this entire song a try at some point.

0 reply
SGxMastodonxSG 110 Jul 05, 2008 12:26 AM

actually nevermind, the part I said that sounded like a slide sounds like a pull off or picking. my bad :P

0 reply
SGxMastodonxSG 110 Jul 05, 2008 12:37 AM

hahaha, i swear, last comment.
You got the notes, not the position. Will's part goes like this:
E-----9--12--14-------------7------------------4p0-7p0-------4p0-7h9-----|
B---9-----------12--14\---------9-7-7h9------5-------------5---------7h9-|
G-6-----------------------9---6----------2-4-----------2-4---------------|
D------------------------------------------------------------------------|
A------------------------------------------------------------------------|
D------------------------------------------------------------------------|

source: http://www.youtube.com/watch?v=lmHcjAN0eY0

guest
Wanna post a correction for this tab? Suggest correction