Oops, an error
Loading. Please wait.

Im Down With Brown Town intro tab

4,336 views 1 this week
2 commentsread comments
1 2 3 4 5
2 more votes to show rating
add to favorites
×
Save as Personal and add changes to this tab that will be seen only by you. Learn more ›
×
You can save this tab as Personal to edit and correct it or add notes. All changes will be seen only by you. Learn more »
launch autoscroll
font size
0
reset
how to read this tab
guitar tuner
edit
Autoscroll
slow
fast
+/-
esc
set tempo
stop
Author
Unregistered
-----------------------------------------------------------------------------
              I'm Down With Brown Town - Dance Gavin Dance
-----------------------------------------------------------------------------
Tabbed by: david
Email: thischarmingman13@gmail.com

Tuning: standard

sorry in advance about the shortness, i'm not good at deciphering distorted parts. i
love to cooperate on finishing the tab with someone. shoot me an email. anyway hope the
helps.

e|-12--15--12----------------------------------------------------------------|
B|-13--12--10--12b13b12------------------------------------------------------|
G|-14--12--10-----------12---------------------------------------------------|
D|---------------------------------------------------------------------------|
A|---------------------------------------------------------------------------|
E|---------------------------------------------------------------------------|

correction credit: LesZao

| b  bend
| /  slide up
| \  slide down
| h  hammer-on
| p  pull-off
| ~  vibrato
| +  harmonic
| x  Mute note
=============================================================================

            
            
Suggest correction
Creating personal tab
Creating personal tab
You can edit any tab online and save it as your Personal.

You can edit, replace or remove any tab part or add personal notes – all changes will be seen only by you.

Personal tabs can be accessed anytime from any device, even offline.
Learn more »
Give kudos to tab author, rate the tab!
1 2 3 4 5
comments
print report bad tab
2 comments total.
0 reply
Indie Purist 949 Oct 21, 2009 02:32 PM

|--------------------------------------------------------------------
|-10--8--6--5--------------------------------------------------------
|--9--7--5--4--------------------------------------------------------
|-10--9--7--5--------------------------------------------------------
|--------------------------------------------------------------------
|--------------------------------------------------------------------

These chords are strummed starting at 54 seconds

0 reply
LesZao 41 Nov 17, 2009 09:40 AM

|-12--15--12------------------
|-13--12--10--------------------
|-14--12--10--------------------
|-------------------------------
|-------------------------------
|-------------------------------


I think that sounds spot on.

guest
Wanna post a correction for this tab? Suggest correction