Oops, an error
Loading. Please wait.

Tree Village tab

version 1
version 1

Whole song

Interactive

19,176 views 9 this week
7 commentsread comments
1 2 3 4 5
x 11
add to favorites
×
Save as Personal and add changes to this tab that will be seen only by you. Learn more ›
×
You can save this tab as Personal to edit and correct it or add notes. All changes will be seen only by you. Learn more »
launch autoscroll
font size
0
reset
how to read this tab
guitar tuner
edit
Autoscroll
slow
fast
+/-
esc
set tempo
stop
Author
Difficulty
Song: Tree Village
Artist: Dance Gavin Dance
Album: Happiness (June 9th)


Hello friends, I am Froy and I have been working on this song for a lot of time. I have
out many parts in specific but only come to perfect the intro. This is from their third
album coming out June 9th (Happiness). Dgd have come to prove they can do anything. I 
wait for the album. I am sure this is 100% correct :) I will post the rest of the
BEFORE June 9th :) This is in standard E tuning :) Enjoy!

Riff:

     e|--------------------------------------------------------|
     B|--------7---7b-------------12//-----7h8-----------------|
     G|--------x---x--------------x///-------------------------|
     D|-----5----5-5---------10---------4-4--------------------|
     A|----7-7---7-7-------12--12------5-5---------------------|
     E|--------------------------------------------------------|

That's Zach for the intro, but at the verse, he just kinda strums this 3 chords. I hope
understand. Like I said, I'll post the rest when I am finished with the lead. Fun!

            
            
Suggest correction
Creating personal tab
Creating personal tab
You can edit any tab online and save it as your Personal.

You can edit, replace or remove any tab part or add personal notes – all changes will be seen only by you.

Personal tabs can be accessed anytime from any device, even offline.
Learn more »
comments
print report bad tab
7 comments total. Showing first comments.
+1 reply
TheSound 139 May 07, 2009 02:50 PM

Are you using the one with vocals? there's a leaked instrumental track with tree village and a few more other songs from the cd without vocals in their demo stage or whatever. The effects aren't that heavy as well, so the guitar is easier to understand. I'm tabbing with that track and I'm not sure if it's the delay, but you're missing a few notes. I'm gonna post the intro on a GP im making when I finish it.

0 reply
MeloIsLegend 10 May 18, 2009 07:44 AM

Froy loko te amo cabron =D

0 reply
~IzzyInzane~ 89 Nov 25, 2009 09:00 PM

Lol here is what my friend adam showed me

E|-----------------------------------
B|----7--7b7------12---------5/7-
G|--0-0-----------0--0-------0---
D|-5---5--------10----10---4-----
A|7------------12-----------5-------
D|-------------------------------------- repeat until necessary

guest
You may want to rate the tab now too:
select rating
Wanna post a correction for this tab? Suggest correction