Oops, an error
Loading. Please wait.

Untitled How Does It Feel bass

version 1
version 1

Whole song

Interactive

922 views 3 this week
no commentswrite comment
1 2 3 4 5
x 3
add to favorites
×
Save as Personal and add changes to this tab that will be seen only by you. Learn more ›
×
You can save this tab as Personal to edit and correct it or add notes. All changes will be seen only by you. Learn more »
launch autoscroll
font size
0
reset
guitar tuner
edit
Autoscroll
slow
fast
+/-
esc
set tempo
stop
Author
Difficulty
                                        Untitled
                                   (How Does It Feel)
                                        D'Angelo
                                    

Bass                                                              D'Angelo
                                                            Raphael Saadiq

As played by Raphael Saadiq

In 6/4

Intro

5 Bars Rest

|-------------------|-------------------|-------------------|-------------------|
|-------------------|-------------------|-------------------|-------------------|
|-------------------|-------------------|-5-----------------|-------------------|
|-------------------|-------------------|-------------------|-------------------|
  H.       H.         H.       H.         Q  Q  Q  H.         H.       H.       

Intro

|-------------------|-------------------|-------------------|-------------------|
|-------------------|----------7--------|----------5--------|-------------------|
|-5-----------------|-------------------|-------------------|-3-----------------|
|----------0--2--3--|-5-----------------|-3-----------------|-------------------|
  H.       Q  Q  Q    H.       Q  Q  Q    H.       Q  Q  Q    H.       H.

  P
|-7-----------------|-------------------|-------------------|-------------------|
|-------------------|----------7--------|-------------------|---------/5--------|
|-5-----------------|-------------7-----|----------------2--|-3-----------------|
|-------------x--3/-|-5--------------2--|-3--------3--------|-------------------|
  E E Q Q  Q  Q  Q    H.       Q  Q  Q    H.       Q  Q  Q    H.       Q  Q  Q

  P
|-7-----------------|
|-------------------|
|-------------------|
|----------14\2/14\-|
  Q  Q  Q  Q  Q  Q

Verse 1
                                                              P
|-------------------|-------------------|-------------------|-7-----------------|
|----------7--------|----------5--------|-------------------|-------------------|
|-------------------|-------------0--2--|-3-----------------|----------5--------|
|-5-----------------|-3-----------------|-------------------|-------------2/-3/-|
  H.       Q  Q  Q    H.       Q  Q  Q    H.       Q  Q  Q    E E Q Q  Q  Q  Q

                                                              P
|-------------------|-------------------|----------5--------|-7-----------------|
|----------7--------|-------------x-----|-------------------|-------------------|
|-------------------|----------------2--|-3-----------------|-------------------|
|-5-----------------|-3-----------------|-------------------|----------14\5/10/-|
  H.       Q  Q  Q    H.       Q  Q  Q    H.       E E Q Q    E E Q Q  Q  Q  Q

                                                              P
|-------------------|-------------------|----------------5\-|-7-----------------|
|-------------------|-------------------|-------------------|-------------------|
|-------------------|----------------2--|-3--------3/-------|-------------------|
|-5-----------------|-3--------3--------|---3-0-------------|-------------2/-3/-|
  H.       Q  Q  Q    H.       Q  Q  Q    E E E Q. H     Q    E E Q Q  Q  Q  Q

|-------------------|------------------|-------------------|-------------------|
|----------7--------|-5------5---------|----------------1--|-2--------2----/2--|
|-----------------5-|----------5-------|----------2--4-----|-------------------|
|-5-----------------|------------3-----|-2-----------------|-------------------|
  H.       Q  Q E E   H      E E E Q.Q   H.       Q  Q  Q    H.       Q  Q  Q

|-------------------|-------------------|
|----------------7--|-------------------|
|-------------------|-5-----------------|
|-5-----------------|----------0--2--3/-|
  Q  H     H     Q    H     Q  Q  Q  Q

Chorus 1
                                                              P
|-------------------|-------------------|-------------------|-7-----------------|
|----------7--------|-------------------|-------------------|-------------------|
|-------------------|-------------------|-3-----------------|-------------------|
|-5-----------------|-3-----------------|-------------------|-------------2/-3/-|
  H.       Q  Q  Q    H.       H.         H.       H.         E E Q Q  Q  Q  Q

|-------------------|-------------------|-------------------|-------------------|
|----------7--------|-------------------|---------------/7--|-------------------|
|-------------------|---------------x-2-|-3----------/7-----|-5-----------------|
|-5--------------x--|-3-----------------|-------------------|---------x-2-x-2---|
  H.       Q  Q  Q    H.       E Q  E Q   H.       Q  Q  Q    H.      E E E E E

Interlude 1
                                                              P
|-------------------|-------------------|-------------------|-7-----------------|
|----------7--------|-------------------|-------------------|-------------------|
|-------------------|--------------0-2--|-3-----------------|---------/7--5--2--|
|-5-----------------|-3-----------------|-------------------|-------------------|
  H.       Q  Q  Q    H.      Q  E E Q    H.       H.         E E Q Q  Q  Q  Q

Verse 2
                                                              P
|-------------------|-------------------|-------------------|-7-----------------|
|---------------/7--|-------------------|-------------------|-------------------|
|-------------------|-------------------|-3--------x--------|-------------------|
|-5-----------------|-3-------3---------|-------------------|-------------2/-3/-|
  H.       H     Q    H.      E E Q Q     H.       E E Q Q    E E Q Q  Q  Q  Q

                                                              P
|-------------------|-------------------|-------------------|-7-----------------|
|-------4h5p4h5p4---|---------5---------|-------------------|---------/2--------|
|-----------------2-|---------------2---|-3-----------------|-------------------|
|-5-----------------|-3-----------------|-------------------|-------------2/-3/-|
  H.    E E E E E E   H.      E E Q Q     H.       H.         E E Q Q  Q  Q  Q

|-------------------|-------------------|-------------------|-------------------|
|---------------/7--|---------5---------|------/4--------1--|-2--------6--9--8--|
|-------------------|-------------------|----------2--4-----|-------------------|
|-5-----------------|-3-----------------|-2-----------------|-------------------|
  H.       H     Q    H.      E E Q Q     H     Q  Q  Q  Q    H.       Q  Q  Q

|-------------------|-------------------|
|----------------7--|-------------------|
|-------------------|-5-----------------|
|-5-----------------|----------0--2--3/-|
  Q  H     H     Q    E E Q Q  Q  Q  Q

Chorus 2
                                                                P        P S  P S S
|---------------------|-------------------|-------------------|-9/11-----x----x------|
|---------7-----------|----------5--------|-------------------|----------------------|
|-------7---7---------|-------------------|-3-----------------|------------x----x-x--|
|-5-----------5-0-2-2-|-3-----------------|-------------------|----------------------|
  H.    E E E E E E E   H.       E E H      H.       H.         E E Q  E E Q  E E Q

                                                              P
|-------------------|-------------------|---------/14-------|-7---------------------|
|-------------------|-------------------|-------------------|--------4--------------|
|-------------------|-----------2-2-2-2-|-3-----------------|-----------------------|
|-5-----------x-2-2-|-3-----5-5---------|-------------------|-----------x-x-2-2-3---|
  H.     Q  E E E E   H.    E E E E E E   H.       H.         E E Q  Q  E E E E E E

                                                              P        P
|-------------------|-------------------|-------------------|-7--------7--------|
|---------7---------|---------5---------|-------------------|-------------------|
|-------------------|---------------2---|-3--------------3/-|---------------/9\-|
|-5-----------0--2--|-3-----------------|-------------------|-------------------|
  H.      E E Q  Q    H.      E E Q Q     H.       H     Q    E E Q Q  E E Q Q

|-------------------|-------------------|------/5----------7-|
|---------7---------|-------5-----------|------------7--9----|
|-------------------|-----------2---2---|-3--------9---------|
|-5--------------2--|-3-----------------|--------------------|
  H.      E E Q  Q    H.    E E E E E E   Q  Q  Q  E Q  Q  E

Interlude 2

|-------------------|--------------------|--------------------|-------------------|
|-------------------|----------2-0-------|--------------------|--------------/4---|
|-2--------2--0-----|---------------2----|------5-2----0------|--------/2-/5----5-|
|---------------/2--|-0----------------2-|---5------------/2--|-0-----------------|
  H.       Q  Q  Q    Q  Q  Q  E Q  Q  E   E Q  E H    Q   Q    H.      Q  Q  E E  

|-------------------|---------------------|---------------------|---/14-------------|
|-2--------2--0-----|---------------------|-------------4-------|-------------------|
|----------------2--|---------------------|---------------4-----|-------------------|
|-------------------|-5-------5---4---3---|-2-------2-------2---|-3----\3-----------|
  H.       Q  Q  Q    H.      E E E E E E   H.      E E E E E E   Q  Q  Q  H.

|-------------------|-------------------|
|-------------------|-------------------|
|-------------------|-5--------5--------|
|-5-----------------|------------/2-/3--|
  Q  Q  Q  H.         Q  Q  Q  Q  Q  Q

Solo 

|-------------------|-------------------|-------------------|--------------x----|
|----------7--------|-------------------|---------/5--------|-------------------|
|-------------------|--------------0-2--|-3-----------------|-5--------------5\-|
|-5-----------0-2-0-|-3-----------------|-------------------|-------------------|
  H.       Q  E E E   H.      Q  E E Q    H.       H.         E E Q Q  Q E E Q

                                                              P
|-------------------|-------------------|-------------------|-9/11--------------|
|-------------------|---------5---------|-------------------|-------------------|
|-------------------|-------------------|-3-----------------|-------------------|
|-5---------x-0--2--|-3-----------------|-------------------|-------------------|
  H.      E E Q  Q    H.      E E Q  Q    H.       H.         E E Q Q  H.

Interlude 3

                                                              P
|-------------------|-------------------|-------------------|-9/11--------------|
|-------------------|-------5-----------|-------------------|-------------------|
|-------------------|---------------2---|-3-----------------|---------------/2--|
|-5-----------------|-3-----------3---3-|-------------------|-------------------|
  H.       Q  Q  Q    H.    E E E E E E   H.       H     Q    E E Q Q  Q  Q  Q

                                                              P
|-------------------|-------------------|-------------------|-7-----------------|
|-------------------|-------------------|-------------------|-------------------|
|-------------------|-------------------|-3-----------------|----------x--x-----|
|-5-----------------|-3-----------------|-------------------|-------------------|
  H.       H     Q    H.      H      Q    H.       H     Q    E E Q Q  Q  Q  Q

                                                              P
|-------------------|-------------------|-------------------|-9p7---------------|
|-------------------|-------------------|-------------------|-----9-------------|
|-------------------|---------------/5--|-3-----------------|-------------------|
|-5-----------------|-3-----------------|-------------------|-------------------|
  H.       H     Q    H.      H      Q    H.       H     Q    S S E E Q H.  

|-------------------|-------------------|-------------------|-------------------|
|-------------------|-------------------|-------------------|-------------------|
|-------------------|-------------------|-3-----------------|-5-----------------|
|-5-----------------|-3-----------------|-------------------|-------------------|
  H.       H     Q    H.      H      Q    H.       H     Q    Q  Q  Q  H.  


|-------------------|-------------------|-------------------|-----------4-7-4---------|
|-------------------|-------------------|-------------------|-----4-5-7-------7-4-----|
|-------------------|----------------2--|-3-----------3--4--|-5-7-----------------7-5-|
|-5-----------------|-3-----------5-----|-------------------|-------------------------|
  H.       H     Q    H.       Q  Q  Q    H.       Q  Q  Q    E E E E E E E E E E E E 

|-------------------------|-------------------------|-----------5-9--10----|
|-----------4-5-4---------|---------2-4-5-4-2-------|-------5-7------------|
|-----4-5-7-------7-5-----|-----2-5-----------5---2-|-3-5-7-------------3--|
|-5-7-----------------2-0-|-3-5-----------------3---|----------------------|
  E E E E E E E E E E E E   E E E E E E E E E E E E   E E E E E E Q  Q  Q


|--------x---11\--/14-|
|---------------------|
|-5----x---x---/9-----|
|---------------------|
  Q  E E E E Q  Q  Q

Chorus 3
                                                                       P S S S P S
|-------------------|---------/5--------|-------------------|----------7-------7---|
|-------------------|-------------------|-------------------|----------------------|
|-------------------|-3-----------------|-------------------|-5----------5-x-5/--x-|
|-5-----17\5--0--2--|-------------0--2/-|-3--------3--------|----------------------|
  H     Q  Q  Q  Q    H.       Q  Q  Q    H.       Q  Q  Q    H.       E E E E E E
                                                          ___
                                                         | 3 |              P   S P
|-------------------|-------------------|------------------------|----------7-----x----|
|-------------------|-------------------|----------------4p2p0---|---------------------|
|---------------2---|-3--3--3--3--2-----|-------------2--------2-|-5------------5/-----|
|-5---------------3-|----------------5/-|-3--3--3\-5-------------|---------------------|
  H.      Q  Q  E E   Q  Q  Q  Q  Q  Q    Q  Q  Q  Q  Q  S S S E   H.       E E E E Q
                                                                   ___   ___   ___
                                                                  | 3 | | 3 | | 3 |
                                                              S   S S S S S S S S S S  S
|-------------------|-------------------|-------------------|-------x-----x-----x---------|
|-----------\7------|-------------------|---------x---------|-----------------------------|
|---------------2---|-3-----------------|------------2--5-0-|-x---x---x-x---x-x---x-7/-7/-|
|-5------\5-------3-|----0-----2-----5--|-3-----------------|-----------------------------|
  H.      Q  Q  E E   Q  H     H     Q    H.      Q  Q  E E   E E E E E E E E E E E Q  Q 
                                                          ___
  S      P                                               | 3 |
|--------x----------|-5--5--5--5--------|------------------------|---------------7\----|
|-------------------|-5--5--5--5--------|----------------4p2p0---|------------------7\-|
|---------------2---|-3--3--3--3-----3\-|---------/7--2--------2-|-5----------5/-------|
|-5---------\5----3-|-------------------|-3--3--3----------------|---------------------|
  H.     E E Q  E E   Q  Q  Q  H     Q    Q  Q  Q  Q  Q  S S S E   H.         Q  Q  Q
                                                          ___
        S P                                              | 3 |
|---------x---------|----------x--------|------------------------|---------7---14\--/7--|
|-------------------|-------------------|----------------4p2p0---|-----4-7--------------|
|---------------2---|-3-----3----3-2--0-|----------0--2--------2-|-x-5-----------/5-----|
|-5-----x---5-x---3-|-------------------|-3--3--3/---------------|----------------------|
  H.    E E E E E E   Q  Q  Q  E E Q  Q   Q  Q  Q  Q  Q  S S S E   E E E E E E Q  Q  Q

|--------x----------|----5-----5--------|-------------------||
|-------------------|----5-----5--------|-------------------||
|-----------------2-|-3--3-----3--2--0--|-------------------||
|-5----------0--3---|-------------------|-3-----------------||
  H.     E E Q  E E   Q  H     Q  Q  Q    Q  Q  Q  H.

 
Key to rhythm notations:

W - Whole Note/Semi-Brieve
H - Half Note/Minim
Q - Quarter Note/Crotchet       Q. - Dotted Quarter Note
E - Eight Note/Quaver           E. - Dotted Eight Note
S - Sixteenth Note/Semi-Quaver  S. - Dotted Sixteenth Note

            
            
Suggest correction
Creating personal tab
Creating personal tab
You can edit any tab online and save it as your Personal.

You can edit, replace or remove any tab part or add personal notes – all changes will be seen only by you.

Personal tabs can be accessed anytime from any device, even offline.
Learn more »
Give kudos to tab author, rate the tab!
1 2 3 4 5
comments
print report bad tab
guest
You may want to rate the tab now too:
select rating
Wanna post a correction for this tab? Suggest correction