Oops, an error
Loading. Please wait.

Gotta Get Thru This intro tab

version 1
version 1

Intro

Whole song

19,007 views 18 this week
5 commentsread comments
1 2 3 4 5
x 13
add to favorites
×
Save as Personal and add changes to this tab that will be seen only by you. Learn more ›
×
You can save this tab as Personal to edit and correct it or add notes. All changes will be seen only by you. Learn more »
launch autoscroll
font size
0
reset
how to read this tab
guitar tuner
edit
Autoscroll
slow
fast
+/-
esc
set tempo
stop
Author
e|----------------------------------
B|----------------------------------
G|----------------------------------
D|----------------------------------
A|-----5-6-1--------5-6-1-----------
E|---3--------6-5-3-------6-5-3-----

this works well for me... this is my very first tab so change it up to you
liking... 
Use Power Chords, its sounds even better!

e|--------------------------------------------
B|--------------------------------------------
G|------7-8---3------------7-8---3------------
D|---5--7-8---3---8-7-5----7-8---3---8-7-5----
A|---5--5-6---1---8-7-5----5-6---1---8-7-5----
E|---3------------6-5-3--------------6-5-3----

i think that one works better

            
            
Suggest correction
Creating personal tab
Creating personal tab
You can edit any tab online and save it as your Personal.

You can edit, replace or remove any tab part or add personal notes – all changes will be seen only by you.

Personal tabs can be accessed anytime from any device, even offline.
Learn more »
comments
print report bad tab
5 comments total. Showing first comments. show 1 bad comment
+1 reply
Gossseb 70 Sep 28, 2004 08:00 PM

U can use the power chords and its easyer to play it down on the first fret. so:
--------------------
--------------------
----4-5-------------
-2--4-5--5--5-4-2---
-2--2-3--5--5-4-2---
-0-------3--3-2-0---

+1 reply
Gossseb 70 Sep 28, 2004 08:00 PM

I think thats it, its hard to write a tab without a guitar.

guest
You may want to rate the tab now too:
select rating
Wanna post a correction for this tab? Suggest correction