Oops, an error
Loading. Please wait.

My Love To Be tab

22 views 1 this week
no commentswrite comment
1 2 3 4 5
3 more votes to show rating
add to favorites
×
Save as Personal and add changes to this tab that will be seen only by you. Learn more ›
×
You can save this tab as Personal to edit and correct it or add notes. All changes will be seen only by you. Learn more »
launch autoscroll
font size
0
reset
how to read this tab
guitar tuner
edit
Autoscroll
slow
fast
+/-
esc
set tempo
stop
Author
Difficulty
[Intro/Verse]

         Fmaj7                                 D7add4
     E|----0-----0---0-----0---0-----0-----------0h3-------0h3-------0h3---------------|
     B|------1---------1---------1-------------------1---------1---------1-------------|
     G|--------2---------2---------2-----0---0---------2---------2---------2---0---0---|
     D|--3---------3---------3---------3---2---0---------0---------0---------0---2-----|
     A|--------------------------------------------------------------------------------|
     E|--------------------------------------------------------------------------------|
         I can't wait to...           see you lying next to me


    [Pre-Chorus]

         G9        F9        C                 G9        F9        C
     E|----5---------3---------3-----------------5---------3---------3-----------3---|
     B|------3---------1---------1-----0h1---------3---------1---------1-----0h1---1-|
     G|--------4---------2---------0-------0---------4---------2---------0-----------|
     D|--5-------5-3-------3-------------------5-------5-3-------3-------------------|
     A|----------------------3-------3-------3---------------------3-------3---------|
     E|------------------------------------------------------------------------------|
So just wait          yeh darlin..       ..be worth it..


    [Chorus]
       G/B        C         D7add4    Fmaj7               E?        D7add4    C
     E|---3---------0---------3---------0---------0---------3---------3---------0-------|
     B|-----0---------1---------1---------1---------1---------1---------1---------1-----|
     G|-------0---------0---------2---------2---------2---------0---------2---------0---|
     D|---------------------0-------0-3-------3-3-------3-2-------2-0-------0-----------|
     A|-2-------2-3-------3---------------------------------------------------3-------3-|
     E|---------------------------------------------------------------------------------|
   Cos  I         love you  so       much   and I         dont' even know you.


************************************

| h  Hammer-on

************************************

Lyrics.


[Verse]

I can't wait to wake up and see you lying next to me.
I'll say I love you, and I know you'll love me too.

It seems like forever until the day I meet you.
But I know you'll be waiting, and I'll be waiting too.


[Pre-chorus]

So just wait, yeh darling, cos' it'll be worth it when I find you.
So just wait, yeh darling, cos' it'll be worth it when I find you.


[Chorus]

Cos I love you so much and I don't even know you.
I will make such a fuss, the day I meet you.




            
            
Suggest correction
Creating personal tab
Creating personal tab
You can edit any tab online and save it as your Personal.

You can edit, replace or remove any tab part or add personal notes – all changes will be seen only by you.

Personal tabs can be accessed anytime from any device, even offline.
Learn more »
Give kudos to tab author, rate the tab!
1 2 3 4 5
comments
print report bad tab
guest
You may want to rate the tab now too:
select rating
Wanna post a correction for this tab? Suggest correction