Oops, an error
Loading. Please wait.

Golden Mile tab

version 2
version 2

Whole song

Interactive

2,080 views 45 this week
no commentswrite comment
1 2 3 4 5
x 4
add to favorites
×
Save as Personal and add changes to this tab that will be seen only by you. Learn more ›
×
You can save this tab as Personal to edit and correct it or add notes. All changes will be seen only by you. Learn more »
launch autoscroll
font size
0
reset
how to read this tab
guitar tuner
edit
Autoscroll
slow
fast
+/-
esc
set tempo
stop
Daniel Rossen - Golden Mile

IMPORTANT NOTE:
This song is a hybrid of picking and strumming.
It's impossible for me to try to specify every single note and when it happens.
I will do my best to specify in the tab what notes are important,
but basically just keep strumming the chords inbetween the picking.
Watch him play it and feel it out for yourself.

You will get it :-) and then you will rejoice in music.

Standard Tuning. Capo 3. Chords relative to capo.

6/8

intro:
 E            E7           Em6          Fmaj11
|7-----------|7-----------|7-----------|0-----------|------------|
|0-----------|0-----------|0-----------|0---3p0--3p0|--3p0--3p0--|
|7-----------|7-----------|0-----------|2-----------|------------|
|6-----------|6-----------|7-----------|3-----------|------------|
|7-----------|5-----------|4-----------|3-----------|------------|
|------------|------------|------------|------------|------------|

 E7           G (walkup)   C            Fmaj13
|0-----------|------------|------------|0---3p0--3p0|--3p0--3p0--|
|0---3030----|------------|------------|3-----------|------------|
|1-----------|------------|---h2-0-----|2-----------|------------|
|2-----------|-----h2-----|--2-----0-2-|3-----------|------------|
|2-----------|--0-2---0-2-|3-----------|------------|------------|
|0-------0-2-|3-----------|------------|------------|------------|

 A            Fmaj13
|0---3030----|0---3p0--3p0|--3p0-------|
|2-----------|3-----------|------------|
|2-----------|2-----------|------------|
|2-----------|3-----------|------------|
|0---------0-|------------|------------|
|--------3---|------------|------3-3-1-|

 Em
|--0-----0---|--0---------|
|--0-----0---|--0---------|
|--0-----0---|--0------h2p|
|--2~5---2~5-|--2~5-------| x4
|--2-----2---|--2----h2p--|
|0-----0-----|0-----0-----|

VERSE:
Em                    Fmaj13
   Denied, a life in retreat
       A       Fmaj13
Living on your knees
Em                                         Fmaj13
   It's alright, you're still light on your feet
         G (walkup)    C
But you can't run from me


CHORUS:
         Am          Em          Dm     G (walkup)
Another silent hour,    another golden mile
         C           Em          Dm     G (walkup)
Another silent hour,    another golden mile
         C           Em          Dm     G (walkup)
Another empty heart,    another bitter smile
         C           Em          Dm     G (walkup)
Another silent hour,    another golden mile

 Em           Dm           Em/G         G7
|0-----------|0-----------|0-----------|1-----------|
|0-----------|6-----------|0-----------|0-----------|
|0-----------|0-----------|0-----------|0-----------|
|5-----------|3-----------|2-----------|3-----------| x2
|7-----------|5-----------|2-----------|2-----------|
|7-----------|5-----------|3-----------|3-----------|

 Em
|--0-----0---|--0---------|
|--0-----0---|--0---------|
|--0-----0---|--0------h2p|
|--2~5---2~5-|--2~5-------| x4
|--2-----2---|--2----h2p--|
|0-----0-----|0-----0-----|

VERSE:
Em                               Fmaj13
   There's no fight, no crushing defeat
        A     Fmaj13
It's a lie run free
Em                                   Fmaj13
   But those lies, they're precious to me
      G (walkup)     C
Come along, leave me be


CHORUS:
       Am          Em        Dm     G (walkup)
For a silent hour,    for a golden mile
       C           Em        Dm     G (walkup)
For a silent hour,    for a golden mile
          C                 Em           Dm           G (walkup)
There is bliss in this mess,   there is magic all around
       C           Em        Dm     G (walkup)
For a silent hour,    for a golden mile

 Em           Dm           Em/G         G7
|0-----------|0-----------|0-----------|1-----------|
|0-----------|6-----------|0-----------|0-----------|
|0-----------|0-----------|0-----------|0-----------|
|5-----------|3-----------|2-----------|3-----------| x2
|7-----------|5-----------|2-----------|2-----------|
|7-----------|5-----------|3-----------|3-----------|

OUTRO:
Em          Dm              Em/G        G7
   Say the words, break the spell
Em          Dm              Em/G        G7
   Say the words, break the spell
Em          Dm           Em/G
   Say the words in your mind

   Before you shout...
           C    Em   Dm   G (walkup) C
   ...out loud 

            
            
Suggest correction
Creating personal tab
Creating personal tab
You can edit any tab online and save it as your Personal.

You can edit, replace or remove any tab part or add personal notes – all changes will be seen only by you.

Personal tabs can be accessed anytime from any device, even offline.
Learn more »
comments
print report bad tab
guest
You may want to rate the tab now too:
select rating
Wanna post a correction for this tab? Suggest correction