Oops, an error
Loading. Please wait.

Cadillac tab

version 2
version 2

Whole song

Interactive

1,989 views 9 this week
no commentswrite comment
1 2 3 4 5
x 3
add to favorites
×
Save as Personal and add changes to this tab that will be seen only by you. Learn more ›
×
You can save this tab as Personal to edit and correct it or add notes. All changes will be seen only by you. Learn more »
launch autoscroll
font size
0
reset
how to read this tab
guitar tuner
edit
Autoscroll
slow
fast
+/-
esc
set tempo
stop
Author
DANKO JONES - CADILLAC
°°°°°°°°°°°°°°°°°°°°°°
Tab:

~Intro~
e|-----------------|-----------------|
B|-----------------|-----------------|
G|---6-6-9-5-5-9-6-|-6---------------|
D|-9-6-6-9-5-5-9-6-|-6---------------| x8
A|-7-4-4-7-3-3-7-4-|-4---------------|
E|-0---------------|-----------------|
   1 & 2 & 3 & 4 &   1 & 2 & 3 & 4 &

~Verse~
e|-----------------|-----------------|
B|-----------------|-----------------|
G|-9-6-6-9-5-5-9-6-|-6---------------|
D|-9-6-6-9-5-5-9-6-|-6---------------|
A|-7-4-4-7-3-3-7-4-|-4---------------|
E|-----------------|-----------------|
   1 & 2 & 3 & 4 &   1 & 2 & 3 & 4 &

~Chorus~
e|-----------------|-----------------|
B|-----------------|-----------------|
G|-9-6-6-9-5-5-9-6-|-6-X---X---X---X-|
D|-9-6-6-9-5-5-9-6-|-6-X---X---X---X-| x3
A|-7-4-4-7-3-3-7-4-|-4-X---X---X---X-|
E|-----------------|-----------------|
   1 & 2 & 3 & 4 &   1 & 2 & 3 & 4 &

last time same as ~Verse~

~Bridge~

Repeat chorus but last time (4th):
e|-----------------|-----------------|
B|-----------------|-----------------|
G|-9-12121212121212|-12--------------|
D|-9-12121212121212|-12--------------|
A|-7-10101010101010|-10--------------|
E|-----------------|-----------------|
   1 & 2 & 3 & 4 &   1 & 2 & 3 & 4 &

--------------------------------------

Lyrics and Song order:

~Intro~
~Verse~
I bought a white cadillac
I bought it off my Mom and Dad
They said don't forget the keys son
So you can get it on

I keep the backseat for loving
I like to drive upfront
And when we're making out
I keep your boy in the trunk

~Chorus~

~Verse~
I like it when you're licking ice cream
It gets all over the upholstery
Don't like it hard I like it soft
So I can lick it off

And when it's midnight
And I'm about to drive by
You got to kiss me on my cheek
Before we say goodbye

~Bridge~
uh uh uh aaauw
oh yeah baby
Drag me home

~Verse~
I bought a white cadillac
I bought it off my Mom and Dad
They said don't forget the keys son
So you can get it on

I keep the backseat for loving
I like to drive upfront
And when we're making out
I keep your boyfriend in the trunk

--------------------------------------

If it is too fast for you, you can
always just play the bass note of each
chord, but it won't sound that good.
Enjoy!

            
            
Suggest correction
Creating personal tab
Creating personal tab
You can edit any tab online and save it as your Personal.

You can edit, replace or remove any tab part or add personal notes – all changes will be seen only by you.

Personal tabs can be accessed anytime from any device, even offline.
Learn more »
Give kudos to tab author, rate the tab!
1 2 3 4 5
comments
print report bad tab
guest
You may want to rate the tab now too:
select rating
Wanna post a correction for this tab? Suggest correction