Oops, an error
Loading. Please wait.

Good Old Days chords

244 views 6 this week
no commentswrite comment
1 2 3 4 5
2 more votes to show rating
add to favorites
×
Save as Personal and add changes to this tab that will be seen only by you. Learn more ›
×
You can save this tab as Personal to edit and correct it or add notes. All changes will be seen only by you. Learn more »
launch autoscroll
font size
0
reset
transpose
0
reset
display chords
guitar tuner
edit
Autoscroll
slow
fast
+/-
esc
set tempo
stop
Author
Difficulty
Strumming
There is no strumming pattern for this song yet. and get +5 IQ
[Intro]
Riff 1: Loop this each verse
e|-------------------------|-------------------------|-----------------------------| 
B|-------------------------|-------------------------|-----------------------------| 
G|-------------------------|----------------------11-|-----------------------------| 
D|------9--12---9------9---|-9---12-----------12-----|12---------9-----9---12------|
A|---10-------------10---10|---------------12--------| -------10---10--------------|
E|-------------------------|-------------------------|-----------------------------|

Riff 2:Play this riff over top before verse

e|------------------------------------------------------------------------------------------------------|
B|------------12---------------------------12--------------------------12-------------------------------|
G|---------12----14--12-----------------12----14--12--12------------12----14--12-----------------12--12-|
D|--12--14--------------14------12---14----------------------12--14--------------14-------12--14--------|
A|------------------------------------------------------------------------------------------------------|
E|------------------------------------------------------------------------------------------------------|


[Verse]

G
Time ticks and drips away
D              G
Days burn disintegrate
G
Years roll along and fade
D               G
Don't let them slip away


[Chorus]

C                G         D
Right here right now today
D             G         
These are the good old days
C                G         D (let ring)
Right here right now today
                   
These are the good old days


[Verse] with riffs

G
Love falls and breaks apart
D                G
Words sting and break a heart
G           
Say what you ought to say
D          G
before its far too late


[Chorus] X2

C                G         D
Right here right now today
D             G         
These are the good old days
C                G         D (let ring)
Right here right now today
                     
These are the good old days


[Bridge]

D                     G
Way back when do you remember when?
D                               G
When we never felt right and we never fit in
D                         G
Times were tight we could never win
D                         G
And all of the places I'd never been
D                      G
I don't wanna sit and reminisce
D                    G
I don't wanna miss a piece of this
D                                G
I got the pedal to the medal and no regrets
C            Bm              A         G
I don't wanna miss I don't wanna miss none of this


[Solo] Same chords as verse

G      D


[Verse] N.C. Riff 1 only 

Hang on and don't let go

I love you more and more

Stay til the sun comes up

Three cheers! Raise your cup!


[Chorus]X4

C                G         D
Right here right now today
D             G         
These are the good old days
C                G         D (let ring)
Right here right now today
                     
These are the good old days


[Outro] Riff 1 and part of Riff 2

G                                  D
Way back when do you remember when?
G                                  D
Way back when do you remember when?
G                                  D
Way back when do you remember when?
G                                  D
Way back when do you remember when?
G

            
            
Suggest correction
Creating personal tab
Creating personal tab
You can edit any tab online and save it as your Personal.

You can edit, replace or remove any tab part or add personal notes – all changes will be seen only by you.

Personal tabs can be accessed anytime from any device, even offline.
Learn more »
Give kudos to tab author, rate the tab!
1 2 3 4 5
comments
print report bad tab
guest
You may want to rate the tab now too:
select rating
Wanna post a correction for this tab? Suggest correction