Oops, an error
Loading. Please wait.

Voetbal International intro tab

4,126 views 18 this week
1 commentread comment
1 2 3 4 5
x 4
add to favorites
×
Save as Personal and add changes to this tab that will be seen only by you. Learn more ›
×
You can save this tab as Personal to edit and correct it or add notes. All changes will be seen only by you. Learn more »
launch autoscroll
font size
0
reset
how to read this tab
guitar tuner
edit
Autoscroll
slow
fast
+/-
esc
set tempo
stop
Author
-------------------------------------------------------------------------------
                  VOETBAL INTERNATIONAL (INTRO) - Danny Vera
-------------------------------------------------------------------------------
Tabbed by: Tim van Kester

Tuning: Standard

This is the famous guitar intro by Danny Vera, played at the beginning of
Gouden Televizier 2011-winner Voetbal International.
Danny Vera's website can be found on http://www.dannyvera.com/

e|---------------------------------------------------------------------------|
B|-----------5--------7--7--5---------------5-5h7~---7--8--9-----------------|
G|---5-5---5---5h7~---5--5--3-------5-5---5----------5--6--7-----------------|
D|-7-----7------------7--7--5-----7-----7------------7--8--9-----------------|
A|--------------------5--5--3------------------------5--6--7-----------------|
E|---------------------------------------------------------------------------|

e|---------------------------------------------------------------------------|
B|------------8-7~----8--8--5---------------------------------------------7--|
G|---5-5---5----------7--7--6---------------------------------------------7--|
D|-7-----7------------8--8--5--------------------------------7--5---------7--|
A|--------------------7--7--7--------5--8-----4--7-----5--8---------------5--|
E|--------------------------5-----6--------5--------6--------------8---------|



************************************

| /   slide up
| \   slide down
| h   hammer-on
| p   pull-off
| ~   vibrato
| +   harmonic
| x   Mute note
| b   Bend
| pb  Pre-bend
| br  Bend release
| pbr Pre-bend release
| brb Bend release bend

************************************

            
            
Suggest correction
Creating personal tab
Creating personal tab
You can edit any tab online and save it as your Personal.

You can edit, replace or remove any tab part or add personal notes – all changes will be seen only by you.

Personal tabs can be accessed anytime from any device, even offline.
Learn more »
comments
print report bad tab
1 comment total.
0 reply
JimmyFive 22 Feb 26, 2013 02:58 AM

thank you very much! =)

guest
You may want to rate the tab now too:
select rating
Wanna post a correction for this tab? Suggest correction