Oops, an error
Loading. Please wait.

Zephyr tab

241 views 1 this week
7 commentsread comments
1 2 3 4 5
1 last vote to show rating
add to favorites
×
Save as Personal and add changes to this tab that will be seen only by you. Learn more ›
×
You can save this tab as Personal to edit and correct it or add notes. All changes will be seen only by you. Learn more »
launch autoscroll
font size
0
reset
how to read this tab
guitar tuner
edit
Autoscroll
slow
fast
+/-
esc
set tempo
stop
Author
Artist: Dans Dans (http://www.bestov.be/content/dans-dans-0)
Song: Zephyr
Sound: Fender amp and jazz guitar (neck pickup, jazz strings), plate reverb(space echo works)
Tuning: Standard
Important to listen to the song and watch video's to get the feel (palm muting, bends etc)
This is the album version as a guideline. Improvising is a big part of the real thing live.

[Main melody]
e|-------------12-----------|-----|----------12---------10-----------------|
B|----------------------15--|-----|-------10---------10--------------------|
G|-----12h14-----12h14------|--or-|----12---------12-----------------------|
D|--12----------------------|-----|-12-------------------------------------|
A|--------------------------|-----|----------------------------------------|
E|--------------------------|-----|----------------------------------------|


[0:00]

e|-----------12---------------------------12----------|
B|-------------------15----------------------------15-|
G|-----12h14---12h14----------------12h14----12h14----|
D|--12---------------------------12-------------------|
A|----------------------------------------------------|
E|----------------------------------------------------|

e|--17------15-----13--15---------17------15------13--15---------------------|
B|-----17------15----------17---------17------15----------17-----------------|
G|---------------------------------------------------------------------------|
D|---------------------------------------------------------------------------|
A|---------------------------------------------------------------------------|
E|---------------------------------------------------------------------------|

e|-----------12---------------------------12----------|
B|-------------------15----------------------------15-|
G|-----12h14---12h14----------------12h14----12h14----|
D|--12---------------------------12-------------------|
A|----------------------------------------------------|
E|----------------------------------------------------|

e|--17------15-----13--15---------17------15------13--15---------------------|
B|-----17------15----------17---------17------15----------17-----------------|
G|---------------------------------------------------------------------------|
D|---------------------------------------------------------------------------|
A|---------------------------------------------------------------------------|
E|---------------------------------------------------------------------------|

e|-----------12---------------------------12----------|
B|-------------------15----------------------------15-|
G|-----12h14---12h14----------------12h14----12h14----|
D|--12---------------------------12-------------------|
A|----------------------------------------------------|
E|----------------------------------------------------|

e|-----------|
B|----22-----|
G|-----------|
D|-----------|
A|-----------|
E|-----------|

Pick Repeatedly with delay (Bert Dockx Uses Boss DD-20 to hold the note and let it fade out)


[1:58]  Palm muted
e|--------------------------------------------------------------------------------------|
B|--------------------------------------------------------------------------------------|
G|--------------------------------------------------------------------------------------|
D|--------------------------------------------------------------------------------------|
A|-----15---17--15--17--15--17--15--17--14--17--14---15-15------------------------------|
E|--15-----------------------------------------------------17-18-17-----15--13--12--10--|


e|----------------------------------------------------------------------------------------|
B|----------------------------------------------------------------------------------------|
G|----------------------------------------------------------------------------------------|
D|----------------------------------------------------------------------------------------|
A|--15--17-17--17-17--15-15--15/17-17--17--17--17-15--15-15--15---------------------------|
E|--------------------------------------------------------------18-17--17-18-17--18\------|

e|---------------------------------------------------------------------------|
B|---------------------------------------------------------------------------|
G|---------------------------------------------------------------------------|
D|---------------------------------------------------------------------------|
A|---------------------------------------------------------------------------|
E|--15-17-18-18-13-10--------------------------------------------------------|


[2:22]

e|--------------------------|
B|----------3---------------|
G|--2---5-------4---5-------|
D|---------------------3----|
A|--------------------------|
E|--------------------------|

e|--------------------------|
B|----------3---------------|
G|--2---5-------4---5-------|
D|---------------------3----|
A|--------------------------|
E|--------------------------|

e|--------------------------|
B|----------3---------------|
G|--2---5-------4---5-------|
D|---------------------3----|
A|--------------------------|
E|--------------------------|

e|---------------------------------------------------------------------------|
B|---------3--3-----------5h6p5----7-7--7-6-6--------------------------------|
G|--2--5---------4--4h5h7-------7--------------------------------------------|
D|---------------------------------------------------------------------------|
A|---------------------------------------------------------------------------|
E|---------------------------------------------------------------------------|

e|---------------------------------------------------------------------------|
B|---------------------------------------------------------------------------|
G|--7--7--7-5-5--------------------------------------------------------------|
D|--------------5-5-5-5-4-----3-2--------------------------------------------|
A|-------------------------5------5------------------------------------------|
E|---------------------------------------------------------------------------|

e|---------------------------------------------------------------------------|
B|---------------------------------------------------------------------------|
G|---------------------------------------------------------------------------|
D|---------------------------------------------------------------------------|
A|---------------------------------------------------------------------------|
E|--/7---3---1---3---5-------------------------------------------------------|

e|---------------------------------------------------------------------------|
B|---------------------------------------------------------------------------|
G|---------------------------------------------------------------------------|
D|----------------------------------------------------------7----------------|
A|--------------------------------------------------7-8--10---10-8-----------|
E|--1----2--2--2--2--1--1---3--3--5--6-6---8--8-10-----------------(10)------|

e|------------------------------------------------------------------------------------------------|
B|----------------------15---------------------------------------------------------------------15-|
G|----------------------------17-17--17-19-17---17-19-17---17-19-17--17-17/14---------------15----|
D|---------------------------------------------------------------------------------------15-------|
A|-----------------------------------------------------------------------------17-----17----------|
E|--10-10-10--10----10-------------------------------------------------------------17-------------|
Lots of reverb on that high note (picked hard)

e|---------------------------------------------------------------------------------------------|
B|--12h13-12--------10h13----------------------------------------------------------------------|
G|--12-------12-----10-----12---11-------------------------------------------------------------|
D|--12----------12--10------------12----------------------------------------8------------------|
A|-----------------------------------12---12--12--12--11--11--10--10--10-------10--10--10--10--|
E|---------------------------------------------------------------------------------------------|

[3:31]

e|-----------12---------------------------12----------|
B|-------------------15----------------------------15-|
G|-----12h14---12h14----------------12h14----12h14----|
D|--12---------------------------12-------------------|
A|----------------------------------------------------|
E|----------------------------------------------------|

e|--17------15-----13--15---------17------15------13--15---------------------|
B|-----17------15----------17---------17------15----------17-----------------|
G|---------------------------------------------------------------------------|
D|---------------------------------------------------------------------------|
A|---------------------------------------------------------------------------|
E|---------------------------------------------------------------------------|

e|-----------12---------------------------12----------|
B|-------------------15----------------------------15-|
G|-----12h14---12h14----------------12h14----12h14----|
D|--12---------------------------12-------------------|
A|----------------------------------------------------|
E|----------------------------------------------------|

e|---------------------------------------------------------------------------|
B|---------------------------------------------------------------------------|
G|---14--14--14--14----12--12----10--10--------------------------------------|
D|---------------------------------------12--12------------------------------|
A|------------------------------------------------10--12--10-----------------|
E|------------------------------------------------------------10--12---------|

Voila

            
            
Suggest correction
Creating personal tab
Creating personal tab
You can edit any tab online and save it as your Personal.

You can edit, replace or remove any tab part or add personal notes – all changes will be seen only by you.

Personal tabs can be accessed anytime from any device, even offline.
Learn more »
Give kudos to tab author, rate the tab!
1 2 3 4 5
comments
print report bad tab
7 comments total. Showing first comments.
0 reply
aladin111 2,245 Feb 06, 2017 12:47 PM, edited on February 7 2017, 02:02 pm

Just checked the beginning - some minor mistakes : it should be. e|--------------------------| -------|-----------12---------10---|B|-----------17----------15-| -------|--------10---------10------|G|--------14----------14----| ---or--|-----12---------12---------|D|-----17----------17-------| -------|--12-----------------------|A|--17----------------------| -------|---------------------------|E|--------------------------| -------|---------------------------|You could change those parts in the rest of the song too ( nevertheless good job )

0 reply
aladin111 2,245 Feb 07, 2017 09:07 AM

Just checked the beginning - some minor mistakes : it should be.
e|--------------------------| -------|-----------12---------10---|
B|-----------17----------15-| -------|--------10---------10------|
G|--------14----------14----| ---or--|-----12---------12---------|
D|-----17----------17-------| -------|--12-----------------------|
A|--17----------------------| -------|---------------------------|
E|--------------------------| -------|---------------------------|
You could change those parts in the rest of the song too ( nevertheless good job )

0 reply
Benoizz 96 Feb 07, 2017 07:42 AM, edited at 12:45 pm

you are right about the notes but i think it is actually played like this (barring DGBE on the twelfth):
e|-------------12------------------------------------------------------------|
B|-----------------------15--------------------------------------------------|
G|-----12-h-14-------t14-----------------------------------------------------|
D|--12------------12---------------------------------------------------------|
A|---------------------------------------------------------------------------|
E|---------------------------------------------------------------------------|

Can you check this ?

guest
You may want to rate the tab now too:
select rating
Wanna post a correction for this tab? Suggest correction