Oops, an error
Loading. Please wait.

Sun Came Bursting Through My Cloud bass

58 views 1 this week
no commentswrite comment
1 2 3 4 5
3 more votes to show rating
add to favorites
×
Save as Personal and add changes to this tab that will be seen only by you. Learn more ›
×
You can save this tab as Personal to edit and correct it or add notes. All changes will be seen only by you. Learn more »
launch autoscroll
font size
0
reset
guitar tuner
edit
Autoscroll
slow
fast
+/-
esc
set tempo
stop
Author
Difficulty
Tabbed by: 6METAL6BASSIST6
E-mail: petergriffinav@gmail.com

Tuning: EADG

G|----------------------------------------------------------------|
D|--------------------------------3-----------3-------------------|
A|5-----------5---3-------------------------------1-----------1---|
E|----------------------------------------------------------------|

G|----------------------------------------------------------------|
D|3-----------3---3-----------------------------------------------|
A|--------------------------------3-----------3---3---------------|
E|----------------------------------------------------------------|

G|----------------------------------------------------------------|
D|3-----------3---3-----------------------------------------------|
A|--------------------------------3-----------3---3-----------3---|
E|----------------------------------------------------------------|

0:15

G|----------------------------------------------------------------|
D|3-----------3---3-----------------------------------------------|
A|--------------------------------1-----------1---1---------------|
E|----------------------------------------------------------------|

G|----------------------------------------------------------------|
D|3-----------3---3-----------------------------------------------|
A|--------------------------------3-----------3---3-----------3---|
E|----------------------------------------------------------------|

G|----------------------------------------------------------------|
D|3-----------3---3-----------3-----------------------------------|
A|--------------------------------1-----------1---1-----------1---|
E|----------------------------------------------------------------|

G|----------------------------------------------------------------|
D|3-----------3---3-----------------------------------------------|
A|--------------------------------3-----------3---3-----------4---|
E|----------------------------------------------------------------|

0:35

G|----------------------------------------------------------------|
D|--------------------------------3-----------3-------------------|
A|5-----------5---3-----------3-------------------1-----------1---|
E|----------------------------------------------------------------|

G|----------------------------------------------------------------|
D|------------3---3-----------------------------------------------|
A|--------------------------------3-----------3---3---------------|
E|1---------------------------------------------------------------|

G|----------------------------------------------------------------|
D|3-----------3---3-----------------------------------------------|
A|--------------------------------3-----------3---3-----------3---|
E|----------------------------------------------------------------|

0:51

G|----------------------------------------------------------------|
D|3-----------3---3-----------3-----------------------------------|
A|--------------------------------1-----------1---1-----------1---|
E|----------------------------------------------------------------|

G|----------------------------------------------------------------|
D|3-----------3---3-----------------------------------------------|
A|--------------------------------3-----------3---3-----------3---|
E|----------------------------------------------------------------|

G|----------------------------------------------------------------|
D|3-----------3---3-----------------------------------------------|
A|--------------------------------1-----------1---1---------------|
E|----------------------------------------------------------------|

G|----------------------------------------------------------------|
D|3-----------3---3-----------------------------------------------|
A|--------------------------------3-----------3---3-------3---4---|
E|----------------------------------------------------------------|

1:11

G|----------------------------------------------------------------|
D|--------------------------------3-----------3-------------------|
A|5-----------5---3-----------3-------------------1-----------1---|
E|----------------------------------------------------------------|

G|----------------------------------------------------------------|
D|3-----------3---3-----------------------------------------------|
A|--------------------------------3-----------3-------3-------3---|
E|----------------------------------------------------------------|

G|----------------------------------------------------------------|
D|3-----------3---3-----------------------------------------------|
A|--------------------------------3-----------3---3-------3-------|
E|----------------------------------------------------------------|

1:26

G|----------------------------------------------------------------|
D|--------------------------------3-----------3-------------------|
A|5-----------5---3-------------------------------1-----------1---|
E|----------------------------------------------------------------|

G|----------------------------------------------------------------|
D|3-----------3---3-----------------------------------------------|
A|--------------------------------3-----------3---3-----------3---|
E|----------------------------------------------------------------|

G|----------------------------------------------------------------|
D|3-----------3---3-----------------------------------------------|
A|--------------------------------3-----------3-------3-------3---|
E|----------------------------------------------------------------|

1:42

G|----------------------------------------------------------------|
D|3-----------3---3---------------3-----------3---3-----------3---|
A|----------------------------------------------------------------|
E|----------------------------------------------------------------|

G|----------------------------------------------------------------|
D|5-------5---5---5-------5---5-----------------------------------|
A|--------------------------------6-----------6---6-----------5---|
E|----------------------------------------------------------------|

G|----------------------------------------------------------------|
D|--------------------------------3-----------3---3-----------3---|
A|3-----------3---3-----------3-----------------------------------|
E|----------------------------------------------------------------|

G|----------------------------------------------------------------|
D|----------------------------------------------------------------|
A|3-----------3---3-----------3---3-------3-------3-----3-----4---|
E|----------------------------------------------------------------|

2:01

G|----------------------------------------------------------------|
D|--------------------------------3-----------3-------------------|
A|5---------------3-----------3-------------------1-----------1---|
E|----------------------------------------------------------------|

G|----------------------------------------------------------------|
D|3-----------3---3-----------------------------------------------|
A|--------------------------------3-----------3---3-----------3---|
E|----------------------------------------------------------------|

G|----------------------------------------------------------------|
D|3-----------3---3-----------3-----------------------------------|
A|--------------------------------3-----------3-------3-------4---|
E|----------------------------------------------------------------|

2:16

G|----------------------------------------------------------------|
D|--------------------------------3-----------3-------------------|
A|5---------------3-----------3-------------------1-----------1---|
E|----------------------------------------------------------------|

G|----------------------------------------------------------------|
D|3-----------3---3-----------------------------------------------|
A|--------------------------------3-----------3---3-----------3---|
E|----------------------------------------------------------------|

G|----------------------------------------------------------------|
D|3-----------3---3-----------------------------------------------|
A|--------------------------------3-----------3---3-------3-------|
E|----------------------------------------------------------------|

2:32

G|----------------------------------------------------------------|
D|3-----------3---3-----------3-----------------------------------|
A|--------------------------------1-----------1---1-----------1---|
E|----------------------------------------------------------------|

G|----------------------------------------------------------------|
D|3-----------3---3-----------------------------------------------|
A|--------------------------------3-----------3---3-----------3---|
E|----------------------------------------------------------------|

G|----------------------------------------------------------------|
D|3-----------3---3-----------3-----------------------------------|
A|--------------------------------1-----------1---1-----------1---|
E|----------------------------------------------------------------|

G|----------------------------------------------------------------|
D|3-----------3---3-----------3-----------------------------------|
A|--------------------------------3-----------3---3---3-----4-----|
E|----------------------------------------------------------------|

2:51

G|----------------------------------------------------------------|
D|--------------------------------3-----------3-------------------|
A|5-----------5---3-----------3-------------------1-----------1---|
E|----------------------------------------------------------------|

G|----------------------------------------------------------------|
D|3-----------3---3-------------------------------------------2---|
A|--------------------------------3-----------3---3-------3-------|
E|----------------------------------------------------------------|

G|--------------------|
D|3-----------3---3---|
A|--------------------|
E|--------------------|

            
            
Suggest correction
Creating personal tab
Creating personal tab
You can edit any tab online and save it as your Personal.

You can edit, replace or remove any tab part or add personal notes – all changes will be seen only by you.

Personal tabs can be accessed anytime from any device, even offline.
Learn more »
Give kudos to tab author, rate the tab!
1 2 3 4 5
comments
print report bad tab
guest
You may want to rate the tab now too:
select rating
Wanna post a correction for this tab? Suggest correction