Oops, an error
Loading. Please wait.

777 tab

version 1
version 1

Whole song

Interactive

by Danzig
13,963 views 18 this week
3 commentsread comments
1 2 3 4 5
x 9
add to favorites
×
Save as Personal and add changes to this tab that will be seen only by you. Learn more ›
×
You can save this tab as Personal to edit and correct it or add notes. All changes will be seen only by you. Learn more »
launch autoscroll
font size
0
reset
how to read this tab
guitar tuner
edit
Autoscroll
slow
fast
+/-
esc
set tempo
stop
#----------------------------------PLEASE NOTE---------------------------------#
#This file is the author's own work and represents their interpretation of the #
#song. You may only use this file for private study, scholarship, or research. #
#------------------------------------------------------------------------------##
From: Burning.Inside@f929.n273.z1.fidonet.org (Burning Inside)
Date: 23 Dec 95 00:50:38 -0500
Subject: TAB: "777" by Danzig


From: burning.inside@f929.n273.z1.fidonet.org

777     by Danzig
        from the album "Danzig II: Lucifuge"
        words and music by Glenn Danzig
        tabbed by Tom Mallon
 
There's only two riffs to this song, it's very simple:
 
VERSE
E ---------------------------------------------------------------
B ------------------------------------------------3--------------
G ---------------------------------------------------------------
D -------------------------------------------------------3-2-----
A ---------------------------------------------------------------
E -0-0---0-0-0-3^---0-0---0-0-0-3^---0-0---0-0-0-----0-----------
 
CHORUS
E |------------------|-------------------------------------------
B |------/9----------|-------------------------------------------
G |.-----/9---------.|-------------------------------------------
D |.-----/9---5--4--.|-------------------------------------------
A |-----------5--4---|-------------------------------------------
E |---0-------3--2---|---3^-0-0---0-0-3^-0-3^-0-3^---------------
         *played w/slide
 
That's it. The slide part might not be exactly where John hits it
on the album but it sounds damn close.


            
            
Suggest correction
Creating personal tab
Creating personal tab
You can edit any tab online and save it as your Personal.

You can edit, replace or remove any tab part or add personal notes – all changes will be seen only by you.

Personal tabs can be accessed anytime from any device, even offline.
Learn more »
comments
print report bad tab
3 comments total.
0 reply
K.B Spades 73 Aug 28, 2006 05:42 PM

:m:

+1 reply
irontremelo 51 Mar 04, 2007 04:47 PM

its beter with
D---2--2--2-2-2--|
A---2--2--2-2-2--|
E---0--0--0-0-0-3|

than with

D-----------------|
A-----------------|
E---0--0--0-0-0-3^|

the rest of it is oaky

0 reply
IbanezIceman09 10 Jan 08, 2010 07:48 AM

irontremelo is correct. Play E minor rather than open E string.This is a trademark of John Christ's play style. He uses the E minor chord quite bit in his riffs.

D---2-2---2-2-2------|
A---2-2---2-2-2------|
E---0-0---0-0-0---3^-|
(bend slowly and hold)

guest
Wanna post a correction for this tab? Suggest correction