Oops, an error
Loading. Please wait.
We have an official Mother tab made by UG professional guitarists. Check out the tab »
×
by Danzig
26,615 views 24 this week
7 commentsread comments
1 2 3 4 5
x 14
add to favorites
×
Save as Personal and add changes to this tab that will be seen only by you. Learn more ›
×
You can save this tab as Personal to edit and correct it or add notes. All changes will be seen only by you. Learn more »
launch autoscroll
font size
0
reset
guitar tuner
backing track
0:00
0:00
edit
Autoscroll
slow
fast
+/-
esc
set tempo
stop
Author
Difficulty
Danzig
"Mother"
Bassist: Eerie Von
Tabber: arrell


Rhythm markings are guides only (ala, I have terrible rhythm)! 


Intro
   O-o-O-o-O-o-O-o-    O-o-O-o-O-o-O-o-    O-o-O-o-O-o-O-o-    O-o-O-o-O-o-O-o-
G-------------------|-------------------|-------------------|-------------------|    
D-------------------|-------------------|-------------------|-------------------|    
A-------------------|-------------------|-------------------|-------------------|  
E-77----------------|-77----------------|-77----------------|-77-7-7-7-7-7-7-7--|   
   
   O-o-O-o-O-o-O-o-   
G-------------------|  
D-------------------|  
A-------------------|
E--7-7-7-7-7-7-7-7--| 

Chorus 1
   O-o-O-o-O-o-O-o     O-o-O-o-O-o-O-o     O-o-O-o-O-o-O-o    O-o-O-o-O-o-O-o    
G-------------------|-------------------|------------------|-------------------|
D-------------------|-------------------|------------------|-------------------| 
A-------------------|-------------------|------------------|-------------------|
E--3-3-33--5-5-55---|--7-7-----7---5----|--3-3-33--5-5-55--|--7-77----7---5----|


   O-o-O-o-O-o-O-o-    O-o-O-o-O-o-O-o-    O-o-O-o-O-o-O-o-    O-o-O-o-O-o-O-o-
G-------------------|-------------------|-------------------|-------------------|
D-------------------|-------------------|-------------------|-------------------|
A-------------------|-------------------|-------------------|-------------------|
E--3-3-33--5-5-55---|--7-7-----7---5----|--3-3-33--5-5-55---|--222222222--------|

Verse
   O-o-O-o-O-o-O-o- 
G-------------------|  
D-------------------| (x7)
A-------------------|
E--7777777777777777-|

   O-o-O-o-O-o-O-o-    
G-------------------|
D-------------------|
A-------------------|
E--777777773---5----|

Chorus 2
   O-o-O-o-O-o-O-o-    O-o-O-o-O-o-O-o-    O-o-O-o-O-o-O-o-    O-o-O-o-O-o-O-o-
G-------------------|-------------------|-------------------|-------------------|
D-------------------|-------------------|-------------------|-------------------|
A-------------------|-------------------|-------------------|-------------------|
E--3-3-33--5-5-55---|--7-7-----7---5----|--3-3-33--5-5-55---|--7-77----7---5----|

   O-o-O-o-O-o-O-o-    O-o-O-o-O-o-O-o-    O-o-O-o-O-o-O-o-    O-o-O-o-O-o-O-o-
G-------------------|-------------------|-------------------|-------------------|
D-------------------|-------------------|-------------------|-------------------|
A-------------------|-------------------|-------------------|-------------------|
E--3-3-33--5-5-55---|--7-7-----7---5----|--3-3-33--5-5-55---|--7777777777777777-|

1st Guitar Solo
   O-o-O-o-O-o-O-o-      
G-------------------| 
D-------------------| (x3)
A-------------------|
E--7-------3---5----|

   O-o-O-o-O-o-O-o-      
G-------------------| 
D-------------------| (A note is a pause, it has the same
A--------------*----|  length as the E note, that is a
E--7-------3---5----|  half note)

Repeat Chorus 2

Concluding Guitar Solo/Outro
   O-o-O-o-O-o-O-o-    O-o-O-o-O-o-O-o-
G-------------------|-------------------|  
D-------------------|-------------------| (x3) 
A-------------------|-------------------|
E--7-------3---5----|--7------(10)-9----|

   O-o-O-o-O-o-O-o-    O-o-O-o-O-o-O-o-
G-------------------|-(play that D note-|  
D-------------------|----three times)---| 
A-------------------|-------------------|
E--7-------3---5----|--7-------(10)x3-99| 

   O-o-O-o-O-o-O-o-     
G-------------------|
D-------------------|
A----*--------------| 
E--777--------------|

* = hold

Any comments appreciated.

            
            
Suggest correction
Creating personal tab
Creating personal tab
You can edit any tab online and save it as your Personal.

You can edit, replace or remove any tab part or add personal notes – all changes will be seen only by you.

Personal tabs can be accessed anytime from any device, even offline.
Learn more »
comments
print report bad tab
7 comments total. Showing first comments.
0 reply
Ice Cold J 40 Nov 06, 2007 11:11 AM

This LOOKS right, but I have to play it to be sure.
I'll get back to ya!

+1 reply
Mack the Knife 10 Mar 01, 2008 07:40 AM

this song is great! also, the tab is quite impressive...for only being played on 1 string! 5 star tab and song!

+1 reply
arrell 229 Oct 03, 2008 02:34 AM

Cheers to the comments above. I'll edit the tab if I can - I've been working on presenting my tabs better.

guest
You may want to rate the tab now too:
select rating
Wanna post a correction for this tab? Suggest correction