Oops, an error
Loading. Please wait.

Tired Of Being Alive tab

version 1
version 1

Whole song

Interactive

by Danzig
9,206 views 12 this week
2 commentsread comments
1 2 3 4 5
x 4
add to favorites
×
Save as Personal and add changes to this tab that will be seen only by you. Learn more ›
×
You can save this tab as Personal to edit and correct it or add notes. All changes will be seen only by you. Learn more »
launch autoscroll
font size
0
reset
how to read this tab
guitar tuner
edit
Autoscroll
slow
fast
+/-
esc
set tempo
stop
TIRED OF BEING ALIVE
====================
Transcription: Mike Inzerillo, Aaron Pacitti, Liam Wolfen Cullen

[Intro]
                       .  .  .  .  .  .
e|------------------|-------------------|------------------|-----------------|
B|------------------|-------------------|------------------|-----------------|
G|-/9b-~------------|-9b-9b-9b-9b-9b-9b-|-9brp7------------|---------7---9---|
D|------------------|-------------------|------9-~---------|(9)------7---9---|
A|------------------|-------------------|------------------|-----------------|
E|------------------|-------------------|------------------|-----------------|
                      \-- 3 --/\-- 3 --/  \-3-/

                (slow bend & release)
e|-----------------|-----------------|-----------------|-----------------|
B|-7----\----------|-----------------|-----------------|-----------------|
G|-7----\------9b--|(9)------------r-|-----------------|-----------------|
D|-----------------|-----------------|-9-~-------------|(9)----------\---|
A|-----------------|-----------------|-----------------|-----------------|
E|-----------------|-----------------|-----------------|-----------------|

[Verse]
   A5 B5   D5        A5 B5   E5  D5    A5 B5   D5       D5/A     A5
E|-----------------|-----------------|-----------------|-----------------|
B|-----------------|-----------------|-----------------|-----------------|
G|---------7-------|---------9---7---|---------7-------|-7---------------|
D|-7/9-----7-------|-7/9-----9---7---|-7/9-----7-------|-7-------7-------|
A|-7/9-9-9-5-------|-7/9-9-9-7---5---|-7/9-9-9-5-------|-5-------7-------|
E|-5/7-7-7---------|-5/7-7-7---------|-5/7-7-7---------|-5-------5-------|
       P.M.              P.M.              P.M.

[Chorus]
  F#5    G5    D5    A5    B5    G5    D5   F#5
E|-------------------------------------------------|
B|-------------------------------------------------|
G|-------------7-----------4-----------7-----------|
D|-4-----5-----7-----7-----4-----5-----7-----4-----|
A|-4-----5-----5-----7-----2-----5-----5-----4-----|
E|-2-----3-----------5-----------3-----------2-----|

-songflow-
 Intro 
 Verse  (6x)
 Chorus (2x)
 Verse  (6x)
 Chorus (2x)
 Verse  (4x) w/solo
 Chorus (2x)
 Verse  (2x)
 Verse  (4x; faster)
 B

***********************************

| /     Slide up
| \     Slide down
| ~     Vibrato
| .     Staccato
| b     Bend
| r     Release
| br    Bend & release
| p     Pull-off
| P.M.  Palm mute
| \-3-/ Triplet timing
| (n)   Hold note over bar line

***********************************

            
            
Suggest correction
Creating personal tab
Creating personal tab
You can edit any tab online and save it as your Personal.

You can edit, replace or remove any tab part or add personal notes – all changes will be seen only by you.

Personal tabs can be accessed anytime from any device, even offline.
Learn more »
comments
print report bad tab
2 comments total.
0 reply
irontremelo 51 Aug 21, 2007 04:59 PM

Is the intro right? it just doesn't sound right

0 reply
mlking99 1,919 2 days ago

it is almost correct, just the 10th fret on B string is wrong, to get the sound of the song bend your 9th fret on the G string a whole step then pick it as many times as you count in the song, then a pull of while still holding the bend to 7th fret G string and then to end 9th fret D string

guest
Wanna post a correction for this tab? Suggest correction