Oops, an error
Loading. Please wait.

Twist Of Cain bass

version 2
version 2

Whole song

Interactive

by Danzig
2,691 views 6 this week
no commentswrite comment
1 2 3 4 5
2 more votes to show rating
add to favorites
×
Save as Personal and add changes to this tab that will be seen only by you. Learn more ›
×
You can save this tab as Personal to edit and correct it or add notes. All changes will be seen only by you. Learn more »
launch autoscroll
font size
0
reset
guitar tuner
backing track
0:00
0:00
edit
Autoscroll
slow
fast
+/-
esc
set tempo
stop
Currently my favorite Danzig song; I had to tab it. And if you rate my tab bad, leave a 
explanation why.

Danzig:
Twist of Cain

Intro:
G|------The-------|-------------------|
D|--Bass-Kicks-in-|-------------------|
A|-around-12-secs-|-0-0-0-0-0-0-6-6-6-|
D|-with-bass-drum-|-------------------|

Chorus:
G|---------------|     |-------|
D|---------------|     |-------|
A|-7-0-6-3-0-0-0-| X 3 |-6-6-6-|
D|---------------|then |-------|

Verse:
G|------------------------------------|
D|------------------------------------|
A|-0-0-0-0-3-3-3-3--0-0-0-0-3-3-3/----|
D|------------------------------------|

Verse Outro:
G|----------------------------|
D|----------------------------|
A|-0-0-0-0-3-3-3-3--0-6--6--6-|
D|----------------------------|


Bridge: it’s a little harder to hear this part so I tabbed it for bass
G|------------------------|
D|------------------------|
A|-0~3-0---0---3-3-0-5-5--|
D|-------5---1------------|

Outro: Synth and Bass Drum going…
G|------|
D|------|
A|-0----|
D|------|

Intro x 1
Chorus x 2
Verse x 4
Verse Outro x 1
Chorus x 2
Verse x 4
Verse Outro x 1
Chorus x 2
Bridge x 3
Chorus x 2
Verse x 4
Verse Outro x 1
Chorus x 2
Bridge x6
Outro x 5

That’s it!

            
            
Suggest correction
Creating personal tab
Creating personal tab
You can edit any tab online and save it as your Personal.

You can edit, replace or remove any tab part or add personal notes – all changes will be seen only by you.

Personal tabs can be accessed anytime from any device, even offline.
Learn more »
Give kudos to tab author, rate the tab!
1 2 3 4 5
comments
print report bad tab
guest
You may want to rate the tab now too:
select rating
Wanna post a correction for this tab? Suggest correction