Oops, an error
Loading. Please wait.

It Wont Be Like This For Long intro tab

version 1
version 1

Whole song

17,382 views 1 this week
2 commentsread comments
1 2 3 4 5
x 3
add to favorites
×
Save as Personal and add changes to this tab that will be seen only by you. Learn more ›
×
You can save this tab as Personal to edit and correct it or add notes. All changes will be seen only by you. Learn more »
launch autoscroll
font size
0
reset
how to read this tab
guitar tuner
edit
Autoscroll
slow
fast
+/-
esc
set tempo
stop
Guitarhulk101
Email me at rrjr2011@yahoo.com for tips and hints and watever.
This is my first tab, so i hope its right.
on the part were it says 666br, just strumm the 6's and bend down and then up on the 
6. that part was confusing to type.

e|--------------------------------------------------------------------------|
b|---4/5-4------------------------------------------------------------------|
g|----------4/6-4-----------------------------------------------------------|
D|-----------------4/6-6-7-6----4-2-4/6-------------------------------------|
A|--------------------------------------------------------------------------|
E|--------------------------------------------------------------------------|

e|--------------------------------------------------------------------------|
b|---4/5-4------------------------------------------------------------------|
g|----------4/6-4-----------------------------------------------------------|
D|-----------------4/6-6-7-6----4-2-2---------------------------------------|
A|--------------------------------------------------------------------------|
E|--------------------------------------------------------------------------|

            
            
Suggest correction
Creating personal tab
Creating personal tab
You can edit any tab online and save it as your Personal.

You can edit, replace or remove any tab part or add personal notes – all changes will be seen only by you.

Personal tabs can be accessed anytime from any device, even offline.
Learn more »
Give kudos to tab author, rate the tab!
1 2 3 4 5
comments
print report bad tab
2 comments total.
+1 reply
alexacoustic123 10 Jun 17, 2009 05:13 AM

sounds good except for instead of an open D string, it sounds better on the second fret on the D string.

0 reply
ton8022 10 Jul 07, 2010 12:09 AM

i agree with alex but at the end instead of that chord play the E chord

guest
You may want to rate the tab now too:
select rating
Wanna post a correction for this tab? Suggest correction