Oops, an error
Loading. Please wait.

Aquetis Vertunis tab

1,752 views 3 this week
no commentswrite comment
1 2 3 4 5
x 3
add to favorites
×
Save as Personal and add changes to this tab that will be seen only by you. Learn more ›
×
You can save this tab as Personal to edit and correct it or add notes. All changes will be seen only by you. Learn more »
launch autoscroll
font size
0
reset
how to read this tab
guitar tuner
edit
Autoscroll
slow
fast
+/-
esc
set tempo
stop
Author
Aquetis, Vertunis
 by The Darkest Hour

 Guitar 1 = Lead Guitar
 Guitar 2

 Tuning   = CGCFAD     (Dropped C)

.  - palm mute           /  - slide up to
\  - slide down to       ~  - vibrato
h  - hammer on           b  - Bend
p  - pull off            Suffixes for bend
t  - tap                 f  - full bend    h - half bend
ph - pinched harmonic    q  - quarter bend t - tap bend
*  - see comment         ^  - Hold bend    r release bend
x  - Stuccatto           ~  - vibrato bend
,  - slight palm mute    () - ghost note, sustained note
"  - tremolo note        <> - Trill


Intro Riff :


Guitar2

|-----------------------------|------------------------------|
|-----------------------------|------------------------------|
|-----------------------------|------------------------------|
|--4---------4-6-7-4----------|----4---------4-6-7-6---------|
|--4-----4-4 4-4-4-0----------|----4-----4-4 4-4-4-2---------|
|--4-----4-4-4-4-4-0----------|----4-----4-4-4-4-4-2---------|
         . .                             . .

|-----------------------------|
|-----------------------------|
|-----------------------------|
|--7---7---4------------------|
|--7---7---4------------------|
|--7---7---4------------------|

Guitar 1

|-----------------------------|
|-----------------------------|
|-----------------------------|
|--5/7------------------------|
|-----------------------------|
|-----------------------------|

|-----------------------------|------------------------------|
|-----------------------------|------------------------------|
|-----------------------------|------------------------------|
|--4---------4-6-7-4----------|----4---------4-6-7-6---------|
|--4-----4-4 4-4-4-0----------|----4-----4-4 4-4-4-2---------|
|--4-----4-4-4-4-4-0----------|----4-----4-4-4-4-4-2---------|
         . .                             . .

|-----------------------------|
|-----------------------------|
|-----------------------------|
|--7---7---4------------------|
|--7---7---4------------------|
|--7---7---4------------------|


Then... 1:02  (Guitar 2 Still The same)

Guitar 1


|-----------------------------|------------------------------|
|-----------------------------|------------------------------|
|-5/6-6-6---------------------|-5/6-6-6----------------------|
|---------9-9-9-6-6-----------|---------9-9-9-6-6------------|
|-----------------------------|------------------------------|
|-----------------------------|------------------------------|

|-----------------------------|------------------------------|
|-----------------------------|------------------------------|
|-----------------------------|------------------------------|
|-(6/)7--7-7-7-9-11-6/7-------|7--7-7-7-9-11-9/11-9-7-9-7-6--|
|-----------------------------|------------------------------|
|-----------------------------|------------------------------|

|-----------------------------|------------------------------|
|-----------------------------|------------------------------|
|-----------------------------|------------------------------|
|-(6/)7--7-7-7-9-11-9--7-7----|7--7-7-7-9-11-9/11-9-7-9-7-6-4|
|-----------------------------|------------------------------|
|-----------------------------|------------------------------|

_______________________________________________________________________

Guitar 1

|-----------------------------|------------------------------|
|-----------------------------|------------------------------|
|----------5-4-5-4------------|------------------------------|
|---7-------------------------|---7-6-----6-7-6--------------|
|-----------------------------|------------------------------|
|-----------------------------|------------------------------|

|-----------------------------|------------------------------|
|--------------5-4------------|------------------------------|
|----------5-4----------------|---5-4------------------------|
|---7-------------------------|-----------6-7-6--------------|
|-----------------------------|------------------------------|
|-----------------------------|------------------------------|

Guitar 2

|-----------------------------|------------------------------|
|-----------------------------|------------------------------|
|-----------------------------|------------------------------|
|--7-------7-----6------------|-----6------------------------|
|--7-------7-----6------------|-----6------------------------|
|--7-------7-----6------------|-----6------------------------|


Heavy part With the Crash Drums:


|-----------------------------|------------------------------|
|-----------------------------|------------------------------|
|-----------------------------|------------------------------|
|--7--7--7--7--7--6--6--6--6--|---6--6--6--6--6--6--6--6--6--|
|--7--7--7--7--7--6--6--6--6--|---6--6--6--6--6--6--6--6--6--|
|--7--7--7--7--7--6--6--6--6--|---6--6--6--6--6--6--6--6--6--|


Back to Intro Riff:

Guitar 2

|-----------------------------|------------------------------|
|-----------------------------|------------------------------|
|-----------------------------|------------------------------|
|--4---------4-6-7-4----------|----4---------4-6-7-6---------|
|--4-----4-4 4-4-4-0----------|----4-----4-4 4-4-4-2---------|
|--4-----4-4-4-4-4-0----------|----4-----4-4-4-4-4-2---------|
         . .                             . .

|-----------------------------|
|-----------------------------|
|-----------------------------|
|--7---7---4------------------|
|--7---7---4------------------|
|--7---7---4------------------|

Guitar 1

|-----------------------------|------------------------------|
|-----------------------------|------------------------------|
|-----------------------------|------------------------------|
|--4---------4-6-7-4----------|----4---------4-6-7-6---------|
|--4-----4-4 4-4-4-0----------|----4-----4-4 4-4-4-2---------|
|--4-----4-4-4-4-4-0----------|----4-----4-4-4-4-4-2---------|
         . .                             . .

|-----------------------------|
|-----------------------------|
|-----------------------------|
|--7---7---4------------------|
|--7---7---4------------------|
|--7---7---4------------------|

Guitar 1  2:50 (Guitar 2 still the same)

|-----------------------------|------------------------------|
|-12/14-14-14-12-12-9--9------|-12/14-14-14-12-12-9—9--------|
|-----------------------------|------------------------------|
|-----------------------------|------------------------------|
|-----------------------------|------------------------------|
|-----------------------------|------------------------------|

|-----------------------------|------------------------------|
|-10-10-10-10-12-12/14-10-----|------------------------------|
|-----------------------------|------------------------------|
|-----------------------------|------------------------------|
|-----------------------------|------------------------------|
|-----------------------------|------------------------------|

|------------------------------------------------------------|
|-10-10-10-10-12-14-12/14-12-10-12-10-9-10-------------------|
|------------------------------------------------------------|
|------------------------------------------------------------|
|------------------------------------------------------------|
|------------------------------------------------------------|

|-------------------------------|----------------------------|
|-10-10-10-10-12-12/14-12-10-10-|----------------------------|
|-------------------------------|----------------------------|
|-------------------------------|----------------------------|
|-------------------------------|----------------------------|
|-------------------------------|----------------------------|

|------------------------------------------------------------|
|-10-10-10-10-12-14-12/14-12-10-12-10-9-10-------------------|
|------------------------------------------------------------|
|------------------------------------------------------------|
|------------------------------------------------------------|
|------------------------------------------------------------|

|-----------------------------|------------------------------|
|-12/14-12-10-12-10-9---------|-12/14-12-10-12-10-9-10-------|
|-----------------------------|------------------------------|
|-----------------------------|------------------------------|
|-----------------------------|------------------------------|
|-----------------------------|------------------------------|

_______________________________________________________________________

Guitar 1

|-----------------------------|------------------------------|
|-----------------------------|------------------------------|
|----------5-4-5-4------------|------------------------------|
|---7-------------------------|---7-6-----6-7-6--------------|
|-----------------------------|------------------------------|
|-----------------------------|------------------------------|

|-----------------------------|------------------------------|
|--------------5-4------------|------------------------------|
|----------5-4----------------|---5-4------------------------|
|---7-------------------------|-----------6-7-6--------------|
|-----------------------------|------------------------------|
|-----------------------------|------------------------------|

Guitar 2

|-----------------------------|------------------------------|
|-----------------------------|------------------------------|
|-----------------------------|------------------------------|
|--7-------7-----6------------|-----6------------------------|
|--7-------7-----6------------|-----6------------------------|
|--7-------7-----6------------|-----6------------------------|



Heavy part With the Crash Drums:

|-----------------------------|------------------------------|
|-----------------------------|------------------------------|
|-----------------------------|------------------------------|
|--7--7--7--7--7--6--6--6--6--|---6--6--6--6--6--6--6--6--6--|
|--7--7--7--7--7--6--6--6--6--|---6--6--6--6--6--6--6--6--6--|
|--7--7--7--7--7--6--6--6--6--|---6--6--6--6--6--6--6--6--6--|


First Acoustic part  4:22  (Only Guitar 2)

D|-----------------------------------------------------------|
A|------------8--------------3-------5-----------------------|
F|----------9---9----------4-------5-------------------------|
C|--------9-------9------4-------5---------------------------|
G|------7-----------7--2-------3-----------------------------|
C|-----------------------------------------------------------|

D|-----------------------------------------------------------|
A|------------8----------------------------------------------|
F|----------9---9----------12------12------------------------|
C|--------9-------9------12--12--12--12----------------------|
G|------7-----------7--10------9-----------------------------|
C|-----------------------------------------------------------|

D|-----------------------------------------------------------|
A|------------8--------------3-------5-----------------------|
F|----------9---9----------4-------5-------------------------|
C|--------9-------9------4-------5---------------------------|
G|------7-----------7--2-------3-----------------------------|
C|-----------------------------------------------------------|

D|-----------------------------------------------------------|
A|------------8----------------------------------------------|
F|----------9---9--------------------------------------------|
C|--------9-------9--------5-------5-------------------------|
G|------7-----------7----5---5---5----5----------------------|
C|---------------------5-------4-----------------------------|

After The First Acoustic Part

Guitar 1

|-5--3--2--3--5--5--3--2--3---|-5--3--2--3--5--5--3--2—3----|
|-----------------------------|-----------------------------|
|-----------------------------|-----------------------------|
|-----------------------------|-----------------------------|
|-----------------------------|-----------------------------|
|-----------------------------|-----------------------------|

|-5--3--2--3--5--5--3--2--3---|-5--3--2--3--5--5--3--2—3----|
|-----------------------------|-----------------------------|
|-----------------------------|-----------------------------|
|-----------------------------|-----------------------------|
|-----------------------------|-----------------------------|
|-----------------------------|-----------------------------|

|-----------------------------|-----------------------------|
|-13-12-10-12-13-13-12-10-12--|-13-12-10-12-13-13-12-10-12--|
|-----------------------------|-----------------------------|
|-----------------------------|-----------------------------|
|-----------------------------|-----------------------------|
|-----------------------------|-----------------------------|

|-----------------------------|-----------------------------|
|-13-12-10-12-13-13-12-10-12--|-13-12-10-12-13-13-12-10-12--|
|-----------------------------|-----------------------------|
|-----------------------------|-----------------------------|
|-----------------------------|-----------------------------|
|-----------------------------|-----------------------------|

Guitar 2

|-----------------------------|-----------------------------|
|-----------------------------|-----------------------------|
|-----------------------------|-----------------------------|
|-10--------------------------|-9---------------------------|
|-10--------------------------|-9---------------------------|
|-10--------------------------|-9---------------------------|

|-----------------------------|-----------------------------|
|-----------------------------|-----------------------------|
|-----------------------------|-------------4bf-r ----------|
|-7---------------------------|-5---------------------------|
|-7---------------------------|-5--------5------------------|
|-7---------------------------|-5---------------------------|

|-----------------------------|-----------------------------|
|-----------------------------|-----------------------------|
|-----------------------------|-----------------------------|
|-10--------------------------|-9---------------------------|
|-10--------------------------|-9---------------------------|
|-10--------------------------|-9---------------------------|

|-----------------------------|-----------------------------|
|-----------------------------|-----------------------------|
|-----------------------------|-------------4bf-r ----------|
|-7---------------------------|-5---------------------------|
|-7---------------------------|-5--------5------------------|
|-7---------------------------|-5---------------------------|

Guitar 1

|-----------------------------|-----------------------------|
|-10-12-13---12-10-8-10f-r~---|-10-12-13---12-10-8-10f-r~---|
|-----------------------------|-----------------------------|
|-----------------------------|-----------------------------|
|-----------------------------|-----------------------------|
|-----------------------------|-----------------------------|

|-----------------------------|-----------------------------|
|-10-12-13---12-10-8-10f-r~---|-10-12-13---12-10-8-10f-r~---|
|-----------------------------|-----------------------------|
|-----------------------------|-----------------------------|
|-----------------------------|-----------------------------|
|-----------------------------|-----------------------------|

|-----10-----10---------------|-----10-----10---------------|
|-7-8----8-7----8-------------|-7-8----8-7----8-------------|
|-----------------------------|-----------------------------|
|-----------------------------|-----------------------------|
|-----------------------------|-----------------------------|
|-----------------------------|-----------------------------|

|-----10-----10---------------|-----10-----10---------------|
|-7-8----8-7----8-------------|-7-8----8-7----8-------------|
|-----------------------------|-----------------------------|
|-----------------------------|-----------------------------|
|-----------------------------|-----------------------------|
|-----------------------------|-----------------------------|

|-----10-----10---------------|-----10-----10---------------|
|-7-8----8-7----8-------------|-7-8----8-7----8-------------|
|-----------------------------|-----------------------------|
|-----------------------------|-----------------------------|
|-----------------------------|-----------------------------|
|-----------------------------|-----------------------------|

Guitar 2

|-----------------------------|-----------------------------|
|-----------------------------|-----------------------------|
|-----------------------------|-----------------------------|
|-10--------------------------|-9---------------------------|
|-10--------------------------|-9---------------------------|
|-10--------------------------|-9---------------------------|

|-----------------------------|-----------------------------|
|-----------------------------|-----------------------------|
|-----------------------------|-------------4bf-r ----------|
|-7---------------------------|-5---------------------------|
|-7---------------------------|-5--------5------------------|
|-7---------------------------|-5---------------------------|

|-----------------------------|-----------------------------|
|-----------------------------|-----------------------------|
|-----------------------------|-----------------------------|
|-10--------------------------|-9---------------------------|
|-10--------------------------|-9---------------------------|
|-10--------------------------|-9---------------------------|

|-----------------------------|-----------------------------|
|-----------------------------|-----------------------------|
|-----------------------------|-------------4bf-r ----------|
|-7---------------------------|-5---------------------------|
|-7---------------------------|-5--------5------------------|
|-7---------------------------|-5---------------------------|

|-----------------------------|-----------------------------|
|-----------------------------|-----------------------------|
|-----------------------------|-----------------------------|
|-10--------------------------|-9---------------------------|
|-10--------------------------|-9---------------------------|
|-10--------------------------|-9---------------------------|



_______________________________________________________________________


Piano part that changes to guitar before the solo (Only Guitar 2)


D|------------5---5-------------5---7-----8------------------|
A|----------5-------5---5-----5---5---5----------------------|
F|--------5-----5-----5-----5-----------5--------------------|
C|-----------------------------------------------------------|
G|-----------------------------------------------------------|
C|-----------------------------------------------------------|

D|------------5---5-------------5---7-----5------------------|
A|----------5-------5---5-----5---5---5----------------------|
F|--------5-----5-----5-----5-----------5--------------------|
C|-----------------------------------------------------------|
G|-----------------------------------------------------------|
C|-----------------------------------------------------------|


_______________________________________________________________________

Guitar 1

|-----5------------5----------|-----7------------10-8-8-7---|
|---5---5-5------5---5-5------|---6---6-6------6------------|
|-5------------5--------------|-5------------5--------------|
|-----------------------------|-----------------------------|
|-----------------------------|-----------------------------|
|-----------------------------|-----------------------------|

|-----5------------5----------|---7------------10-8-8-10-8-7|
|---5---5-5------5---5-5------|--6---6-6------6-------------|
|-5------------5--------------|5------------5---------------|
|-----------------------------|-----------------------------|
|-----------------------------|-----------------------------|
|-----------------------------|-----------------------------|

|-10-8-7------(7)-------------|- 10-8-7------(7)--------5---|
|-----------------------------|-----------------------------|
|-----------------------------|-----------------------------|
|-----------------------------|-----------------------------|
|-----------------------------|-----------------------------|
|-----------------------------|-----------------------------|

|-10-8-7------(7)-------------|- 10-8-7------(7)--------5---|
|-----------------------------|-----------------------------|
|-----------------------------|-----------------------------|
|-----------------------------|-----------------------------|
|-----------------------------|-----------------------------|
|-----------------------------|-----------------------------|

Guitar 2

|-----------------------------|-----------------------------|
|-----------------------------|-----------------------------|
|-----------------------------|-----------------------------|
|-9---------------------------|-11-------12-----------------|
|-9---------------------------|-11-------12-----------------|
|-9---------------------------|-11-------12-----------------|

|-----------------------------|-----------------------------|
|-----------------------------|-----------------------------|
|-----------------------------|-4bf-r ----------------------|
|-3---------------------------|------ ----5--------7--------|
|-3---------------------------|-----------5--------7--------|
|-3---------------------------|-----------5--------7--------|

|-----------------------------|-----------------------------|
|-----------------------------|-----------------------------|
|-----------------------------|-----------------------------|
|-9---------------------------|-11-------12-----------------|
|-9---------------------------|-11-------12-----------------|
|-9---------------------------|-11-------12-----------------|

|-----------------------------|-----------------------------|
|-----------------------------|-----------------------------|
|-----------------------------|-4bf-r ----------------------|
|-3---------------------------|------ ----5--------7--------|
|-3---------------------------|-----------5--------7--------|
|-3---------------------------|-----------5--------7--------|

Guitar 1

|-----------------------------|-----------------------------|
|-----------------------------|-----------------------------|
|-2-5-4-2-4-2-4-5-------------|-2-5-4-2-4-2-4-5-4p5p4-2-----|
|-----------------------------|-----------------------------|
|-----------------------------|-----------------------------|
|-----------------------------|-----------------------------|

|-----------------------------|-----------------------------|
|-----------------------------|-----------------------------|
|---5-4-2-4-2-4-5-------------|---5-4-2-4-2-4-5-4p5p4-2-----|
|-3---------------------------|-3---------------------------|
|-----------------------------|-----------------------------|
|-----------------------------|-----------------------------|

|-----5------------5----------|-----7------------10-8-8-7---|
|---5---5-5------5---5-5------|---6---6-6------6------------|
|-5------------5--------------|-5------------5--------------|
|-----------------------------|-----------------------------|
|-----------------------------|-----------------------------|
|-----------------------------|-----------------------------|

|-----5------------5----------|---7------------10-8-8-10-8-7|
|---5---5-5------5---5-5------|--6---6-6------6-------------|
|-5------------5--------------|5------------5---------------|
|-----------------------------|-----------------------------|
|-----------------------------|-----------------------------|
|-----------------------------|-----------------------------|

Guitar 2

|-----------------------------|-----------------------------|
|-----------------------------|-----------------------------|
|-----------------------------|-----------------------------|
|-9---------------------------|-11-------12-----------------|
|-9---------------------------|-11-------12-----------------|
|-9---------------------------|-11-------12-----------------|

|-----------------------------|-----------------------------|
|-----------------------------|-----------------------------|
|-----------------------------|-4bf-r ----------------------|
|-3---------------------------|------ ----5--------7--------|
|-3---------------------------|-----------5--------7--------|
|-3---------------------------|-----------5--------7--------|

|-----------------------------|-----------------------------|
|-----------------------------|-----------------------------|
|-----------------------------|-----------------------------|
|-9---------------------------|-11-------12-----------------|
|-9---------------------------|-11-------12-----------------|
|-9---------------------------|-11-------12-----------------|

|-----------------------------|-----------------------------|
|-----------------------------|-----------------------------|
|-----------------------------|-4bf-r ----------------------|
|-3---------------------------|------ ----5--------7--------|
|-3---------------------------|-----------5--------7--------|
|-3---------------------------|-----------5--------7--------|

Slow Down

Guitar 1

|-----------------------------|-----------------------------|
|-13--------------------------|-10-----12-------------------|
|--------12--10--9-----(9)----|-----------------------------|
|-----------------------------|-----------------------------|
|-----------------------------|-----------------------------|
|-----------------------------|-----------------------------|

|-----------------------------|-----------------------------|
|-13--------------------------|-10-----12-------------------|
|--------12--10--9-----(9)----|-----------------------------|
|-----------------------------|-----------------------------|
|-----------------------------|-----------------------------|
|-----------------------------|-----------------------------|

Guitar 2

|-----------------------------|-----------------------------|
|-13--------------------------|-10-----12-------------------|
|--------12--10--9-----(9)----|-----------------------------|
|-----------------------------|-----------------------------|
|-----------------------------|-----------------------------|
|-----------------------------|-----------------------------|

|-----------------------------|-----------------------------|
|-13--------------------------|-10-----12-------------------|
|--------12--10--9-----(9)----|-----------------------------|
|-----------------------------|-----------------------------|
|-----------------------------|-----------------------------|
|-----------------------------|-----------------------------|


 __________________________________________________________
|Solo Part By Guitar 1 (I put it in Separated Tabs)        |
|Guitar 2 Remains the same during the solo.                |
|__________________________________________________________|



Guitar 1

|-----5---5-------------------|-----5---7-----8-------------|
|---5-------5---5-------------|---5---5---5-----------------|
|-5-----5-----5---------------|-5-----------5---------------|
|-----------------------------|-----------------------------|
|-----------------------------|-----------------------------|
|-----------------------------|-----------------------------|

|-----5---5-------------------|-----5---7-----5-------------|
|---5-------5---5-------------|---5---5---5-----------------|
|-5-----5-----5---------------|-5-----------5---------------|
|-----------------------------|-----------------------------|
|-----------------------------|-----------------------------|
|-----------------------------|-----------------------------|

Guitar 2

|-----------------------------|-----------------------------|
|-----------------------------|-----------------------------|
|-----------------------------|-----------------------------|
|-9---------------------------|-11-------12-----------------|
|-9---------------------------|-11-------12-----------------|
|-9---------------------------|-11-------12-----------------|

|-----------------------------|-----------------------------|
|-----------------------------|-----------------------------|
|-----------------------------|-4bf-r ----------------------|
|-3---------------------------|------ ----5--------7--------|
|-3---------------------------|-----------5--------7--------|
|-3---------------------------|-----------5--------7--------|

|-----------------------------|
|-----------------------------|
|-----------------------------|
|--9--------------------------|
|--9--------------------------|
|--9--------------------------|


_______________________________________________________________________




Hard Work. This is The Last Song Of their third Album "Hidden Hands Of
A Sadist Nation",It is completely Instrumental And this song is a
Masterpiece!

Enjoy it







Version 1.2 - (12/01/05)
xxxxxxxxxxxxxxxxxxxxxxxxxxxxxxxxxxxxxxxxxxxxxxxxxxxxxxxxxxxxxxxxxxxxxxxxx

            
            
Suggest correction
Creating personal tab
Creating personal tab
You can edit any tab online and save it as your Personal.

You can edit, replace or remove any tab part or add personal notes – all changes will be seen only by you.

Personal tabs can be accessed anytime from any device, even offline.
Learn more »
Give kudos to tab author, rate the tab!
1 2 3 4 5
comments
print report bad tab
guest
You may want to rate the tab now too:
select rating
Wanna post a correction for this tab? Suggest correction