Oops, an error
Loading. Please wait.

No God intro tab

version 1
version 1

Intro

Whole song

Interactive

2,569 views 1 this week
4 commentsread comments
1 2 3 4 5
3 more votes to show rating
add to favorites
×
Save as Personal and add changes to this tab that will be seen only by you. Learn more ›
×
You can save this tab as Personal to edit and correct it or add notes. All changes will be seen only by you. Learn more »
launch autoscroll
font size
0
reset
how to read this tab
guitar tuner
edit
Autoscroll
slow
fast
+/-
esc
set tempo
stop
This Is a great song one of my favorites on the Eternal Return and no one posted a 
tab yet for the intro so here it is:


C#|--------------------------------------------------¦
G#|--------------------------------------------------¦
E |--------------------------------------------------¦
B |----3-2-0-----------------------------------------¦
F#|----3-2-0-----5----8-7--4--5----------------------¦
B |----3-2-0--/7---7---------------------------------¦

   Guitar I
C#|--------------------------------------------------¦
G#|--------------------------------------------------¦
E |--------------------------------------------------¦
B |----3-2-0-----------------------------------------¦
F#|----3-2-0----0-/5-0--8b(1/2)---4b(1/2)------------¦
B |----3-2-0-----------------------------------------¦

   Guitar II
C#|--------------------------------------------------¦
G#|--------------------------------------------------¦
E |--------------------------------------------------¦
B |----3-2-0------------6b(1/2)---3b(1/2)------------¦
F#|----3-2-0----0-/5-0-------------------------------¦
B |----3-2-0-----------------------------------------¦

            
            
Suggest correction
Creating personal tab
Creating personal tab
You can edit any tab online and save it as your Personal.

You can edit, replace or remove any tab part or add personal notes – all changes will be seen only by you.

Personal tabs can be accessed anytime from any device, even offline.
Learn more »
Give kudos to tab author, rate the tab!
1 2 3 4 5
comments
print report bad tab
4 comments total. Showing first comments.
0 reply
6stringz89 92 Jun 26, 2009 10:39 AM

to go along with that, I figured this out (it's close)

play on the top 2 strings

-5---------5-7-8-5----------5-7-8-5-
---0-0-0-0---------0-0-0-0----------
pm----- -------

-10---10---10---10----8h10--7---7---8---8----
----8----8----8----8----------8---8---8---8--
- - - - - - - -

that like 90% correct (if not 100)

0 reply
6stringz89 92 Jun 26, 2009 10:40 AM

palm mute all of the notes on the 6th string

0 reply
6stringz89 92 Jul 06, 2009 09:14 AM

and only play the 10th fret 3 times

guest
You may want to rate the tab now too:
select rating
Wanna post a correction for this tab? Suggest correction