Oops, an error
Loading. Please wait.

Spike In A Rail intro tab

version 2
version 2

Intro

Interactive

11,967 views 6 this week
2 commentsread comments
1 2 3 4 5
x 7
add to favorites
×
Save as Personal and add changes to this tab that will be seen only by you. Learn more ›
×
You can save this tab as Personal to edit and correct it or add notes. All changes will be seen only by you. Learn more »
launch autoscroll
font size
0
reset
how to read this tab
guitar tuner
edit
Autoscroll
slow
fast
+/-
esc
set tempo
stop
-------------------------------------------------------------------------------
                             SPIKE IN A RAIL - Darren Korb
-------------------------------------------------------------------------------
Tabbed by: DamnoMan / deadpepperx
Email:

Tuning: Drop C [ C G C F A D ]

Note: Most of the credit for this should go to Dom L (DamnoMan). I found his 
version but noticed a few inconsistencies when listening to the Bastion OST album 
which I've tried to sort here.

d|----------------------------|
A|----------------------------|
F|----------------------------|
C|----0h3-0--0-----------0----|
G|0h3--------3p0-3p0-3p0-3/5--|
C|----------------------------|

d|-------------------------|
A|-------------------------|
F|-------------------------|
C|----0h3-0--0-------------|
G|00h3-------3p0-3p0-3br0--|
C|-------------------3br0--|

d|----------------------------|
A|----------------------------|
F|----------------------------|
C|----0h3-0--0-----------0----|
G|00h3-------3p0-3p0-3p0-3/5--|
C|----------------------------|

d|----------------------------|
A|----------------------------|
F|----------------------------|
C|5h7p5-----------------------|
G|-----8--5h8p5\3----------0--|
C|-----------------5h7p5\3-0--|

(alternatively, you can play the last bar like this)

d|---------------------------|
A|---------------------------|
F|0h2p0----------------------|
C|-----3--0h3p0--------------|
G|-------------3----------0--|
C|----------------5h7p5\3-0--|

- Back to Start

            
            
Suggest correction
Creating personal tab
Creating personal tab
You can edit any tab online and save it as your Personal.

You can edit, replace or remove any tab part or add personal notes – all changes will be seen only by you.

Personal tabs can be accessed anytime from any device, even offline.
Learn more »
comments
print report bad tab
2 comments total.
0 reply
Teotwawki 10 Apr 05, 2012 03:39 PM

I have to ask, what's the "br" mean? As in:
G|00h3-------3p0-3p0-3br0--|
C|-------------------3br0--|

+1 reply
DermotOC_11 72 Sep 21, 2013 12:18 PM

br means bend and release.

guest
You may want to rate the tab now too:
select rating
Wanna post a correction for this tab? Suggest correction