Oops, an error
Loading. Please wait.

Bed Space tab

version 2
version 2

Whole song

976 views 3 this week
no commentswrite comment
1 2 3 4 5
2 more votes to show rating
add to favorites
×
Save as Personal and add changes to this tab that will be seen only by you. Learn more ›
×
You can save this tab as Personal to edit and correct it or add notes. All changes will be seen only by you. Learn more »
launch autoscroll
font size
0
reset
how to read this tab
guitar tuner
edit
Autoscroll
slow
fast
+/-
esc
set tempo
stop
Author
This is Bed Space by Darwin Deez. I thought the other tabs of this were a little out so 
i thought id try correcting it.

The last chorus is a little iffy, hard to know if there isn't other notes hidden in it, 
but its still pretty accurate.

I have no idea what effects he's using for the backing guitar, hopefully someone can 
help me out?


PLEASE RATE THIS. It's a very good tab (:



INTRO/VERSE:

e|-------------------------------------------------------------------|
B|-9---9---9---9---9---9--9--9--9---9---9---9---9---9---9--9--9--9---|
G|-11--11--11--11--11--11-11-11-11--11--11--11--11--11--11-11-11-11--|
D|-11--11--11--11--11--11-11-11-11--11--11--11--11--11--11-11-11-11--|
A|-9---9---9---9---9---9--9--9--9------------------------------------|
E|----------------------------------11--11--11--11--11--11-11-11-11--|

The strumming pattern varies from intro to verse, so just listen out for little changes



This is played over the intro:

e|------------------------------------------------|
B|------------------------------------------------|
G|--10--------------11------------------11--------|
D|----11--------------11-------------15----13\11--|
A|------11--------------11--11/13/16--------------|
E|------------------------------------------------|



PRE CHORUS (you don't sleep here any more)

e|----------------------------------||
B|----------------------------------||
G|---8-x-x--8-x-x--10-x-x--10-x-x---||
D|---9-x-x--9-x-x--11-x-x--11-x-x---||
A|---9-x-x--9-x-x--11-x-x--11-x-x---||
E|---7-x-x--7-x-x--9--x-x--9--x-x---||

After the first pre chorus, the lead does this, leading back in to the verse:

e ------------------|
B ------------------|
G ------------------|
D --------11--------|
A --9/11-----13-----|
E ------------------|


and during the second verse, after the first line, the lead does this:

e ----------|
B ----------|
G ----------|
D ----------|
A -11--9----|
E -------11-|

CHORUS

(the dead notes aren't necessary, I just put them in to be consistent)

e|------------------------------------------------------|
B|------------------------11-x-x-11-x-x-----------------|
G|-8-x-x-8-x-x-8-x-x-8----11-x-x-11-x-x--8--x-x-8-------|
D|-9-x-x-9-x-x-9-x-x-9----11-x-x-11-x-x--11-x-x-11-x-x--|
A|-9-x-x-9-x-x-9-x-x-9----9--x-x-9--x-x--11-x-x-11-x-x--|
E|-7-x-x-7-x-x-7-x-x-7-------------------9--x-x-9--x-x--|

e|------------------------6------6---------------------|
B|------------------------7-x-x--7-x-x-11--------------|
G|-8-x-x-8-x-x-8-x-x-8----8-x-x--8-x-x-11--x-x-8--x-x--|
D|-9-x-x-9-x-x-9-x-x-9----8-x-x--8-x-x-11--x-x-11-x-x--|
A|-9-x-x-9-x-x-9-x-x-9----6-x-x--6--x-x-9--x-x-11-x-x--|
E|-7-x-x-7-x-x-7-x-x-7---------------------x-x-9--x-x--|


The D#m chords above are played quite gently compared to the rest

e|-------------------------------------|
B|-------------------------------------|
G|---8-x-x--8-x-x-----10-x-x---10-x-x--|
D|---9-x-x--9-x-x-----11-x-x---11-x-x--|
A|---9-x-x--9-x-x-----11-x-x---11-x-x--|
E|---7-x-x--7-x-x-----9--x-x---9--x-x--|


e|-------------------------------------|
B|---7------7---------9--------9-------|
G|---8-x-x--8-x-x-----10-x-x---10-x-x--|
D|---9-x-x--9-x-x-----11-x-x---11-x-x--|
A|---9-x-x--9-x-x-----11-x-x---11-x-x--|
E|---7-x-x--7-x-x-----9--x-x---9--x-x--|

Strumming pattern changes at the end. Again, just listen to it.


When second intro is played, this is played by the lead guitar:

e|----------------------------------------------------------------------|
B|----------------------------------------------------------------------|
G|--10------------------------------10b11r10----------------------------|
D|----11-----------------11\8----------------11---------------11--------|
A|------11-----9/11\9/11-----------------------11-----9/11\13----11\9---|
E|--------------------------------------------------------------------9-|

NO GUITAR DURING SECOND VERSE


REPEAT CHORUS

BRIDGE:


e|-----------------------8--x-8--8--x-8--x-8--8--x-||
B|---7-x-7-7-x-7-x-7-7-x-8--x-8--8--x-8--x-8--8--x-||
G|---8-x-8-8-x-8-x-8-8-x-8--x-8--8--x-8--x-8--8--x-||
D|---9-x-9-9-x-9-x-9-9-x-8--x-8--8--x-8--x-8--8--x-||
A|---9-x-9-9-x-9-x-9-9-x-10-x-10-10-x-10-x-10-10-x-||
E|---7-x-7-7-x-7-x-7-7-x-8--x-8--8--x-8--x-8--8--x-||

last chord of bridge:

(too lazy to write the bridge riff again, just listen for the change)

e -3-X-3--3-X-|
B -3-X-3--3-X-|
G -4-X-4--4-X-|
D -3-X-3--3-X-|
A -5-X-5--5-X-|
E -3-X-3--3-X-|


(after each bar there are other guitar parts.
Listen out for it, I havent shown where they come in)

e ---------------|-------------|-----10------|--------------------------|
B -----------8---|------11--8--|--------11---|---------8----------------|
G -------------8-|-8/10--------|-/8----------|-8/10/12-----8------------|
D -8-10-8-10-----|-------------|-------------|--------------------------|
A ---------------|-------------|-------------|----------------8/10--6---|
E ---------------|-------------|-------------|------------------------8-|

let each ring throughout.



LAST CHORUS

(parts of this may be incorrect...
theres three different guitar parts which makes it hard to work out,
 but hopefully this is it)

rhythm guitar:

e --3---3------------------------------|
B --4---4----4---4----8----8-----6---6-|
G --3---3----5---5----8----8-----7---7-|
D --5---5----6---6----8----8-----8---8-|
A --3---3----6---6----6----6-----8---8-|
E -----------4---4---------------6---6-|

e -----------------3---3-----------|
B -4---4---4---4---4---4---8---6---|
G -5---5---5---5---3---3---8---7---|
D -6---6---6---6---5---5---8---8---|
A -6---6---6---6---3---3---6---8---|
E -4---4---4---4---------------6---|



e ----------------------------------|
B ---4---4---6---6---4---4---6---6--|
G ---5---5---7---7---5---5---7---7--|
D ---6---6---8---8---6---6---8---8--|
A ---6---6---8---8---6---6---8---8--|
E ---4---4---6---6---4---4---6---6--|

1st backing guitar:

e ---------------------------------|
B -8-8-8-8-8-8-8-8-8-8-8-8-6-6-6-6-|
G -8-8-8-8-8-8-8-8-8-8-8-8-8-8-8-8-|
D ---------------------------------|
A ---------------------------------|
E ---------------------------------|

e 11-11-11-11-11-11-11-11-11-11-11-11-11-11-10-10-|
B 11-11-11-11-11-11-11-11-11-11-11-11-11-11-11-11-|
G ------------------------------------------------|
D ------------------------------------------------|
A ------------------------------------------------|
E ------------------------------------------------|

e 8-8-8-8-10-10-10-10-11-11-11-11-13--13--13--13-|
B 8-8-8-8-11-11-11-11---------------16--16--16---|
G -----------------------------------------------|
D -----------------------------------------------|
A -----------------------------------------------|
E -----------------------------------------------|

REPEAT LAST CHORUS.

After playing the "first" last chorus, theres another guitar that comes in with:


           x4         x4
e ---------||---------||
B ---------||-1-------||
G -3-0-----||---0-----|| Repeat until the end
D -----3-1-||-----3-1-||
A ---------||---------||
E ---------||---------||

 Palm muted.



And hey presto.

            
            
Suggest correction
Creating personal tab
Creating personal tab
You can edit any tab online and save it as your Personal.

You can edit, replace or remove any tab part or add personal notes – all changes will be seen only by you.

Personal tabs can be accessed anytime from any device, even offline.
Learn more »
Give kudos to tab author, rate the tab!
1 2 3 4 5
comments
print report bad tab
guest
You may want to rate the tab now too:
select rating
Wanna post a correction for this tab? Suggest correction