Oops, an error
Loading. Please wait.

Belle Of The Boulevard tab

version 2
version 2

Whole song

Interactive

60,259 views 12 this week
10 commentsread comments
1 2 3 4 5
x 34
add to favorites
×
Save as Personal and add changes to this tab that will be seen only by you. Learn more ›
×
You can save this tab as Personal to edit and correct it or add notes. All changes will be seen only by you. Learn more »
launch autoscroll
font size
0
reset
how to read this tab
guitar tuner
edit
Autoscroll
slow
fast
+/-
esc
set tempo
stop
Author
[Chords]
E5:     x79900
D#7:   x79800
Asus2: x02200
Bsus2: x24400
E:    022100
C#m:   x46600

[Intro]
e|------------------------------------------|
B|-------9-12-9-----------9-12-9------------|
G|--9-11--------11-9-9-11--------11-9-11----|
D|------------------------------------------|      (x2)
A|------------------------------------------|
E|------------------------------------------|

e|-----------------------------------------------------------|
B|-------9------9~--------9------9~-------9-----9~--9---9----|
G|--9-11---9-11------9-11---9-11-----9-11---9-11------9---11-|
D|-----------------------------------------------------------|
A|-----------------------------------------------------------|
E|-----------------------------------------------------------|

E5 D#7 Asus2 Bsus2
E5                     D#7
  Down in a local bar
                     E5
Out on the Boulevard

The sound of an old guitar
   D#7
Is saving you from sinking
       Asus2                 Bsus2
It's a long way down, it's a long way
E5                           D#7
  Back like you never broke
                      E5
You tell a dirty joke

He touches your leg
                D#7
And thinks he's getting close
For now you let him
Asus2
Just this once
Bsus2
Just for now
    Asus2
And just like that
     Bsus2
It's over
      E
Don't turn away
Asus2
Dry your eyes, dry your eyes
      C#m
Don't be afraid
            Asus2
But keep it all inside, all inside
         E
When you fall apart
Asus2
Dry your eyes, dry your eyes
C#m
Life is always hard
        Asus2
For the Belle of the Boulevard
E5                          D#7
  In all your silver rings
                          E5
In all your silken things
That song you softly sing
   D#7
Is keeping you from breaking
       Asus2                 Bsus2
It's a long way down, it's a long way
E5                             D#7
  Back here you're never lost
                          E5
You shake the shivers off
You take a drink
            D#7
To get your courage up
Can you believe it?
Asus2
Just this once
Bsus2
Just for now
    Asus2
And just like that
     Bsus2
It's over
      E
Don't turn away
Asus2
Dry your eyes, dry your eyes
      C#m
Don't be afraid
            Asus2
But keep it all inside, all inside
         E
When you fall apart
Asus2
Dry your eyes, dry your eyes
C#m
Life is always hard
        Asus2
For the Belle of the Boulevard

[Solo]
e|----------9-----------9----12-------12-------12----12-14-14-16-16~-|
B|--9-10-12-----9-10-12---12----12-12----12-12----12-----------------|
G|------------9------------------------------------------------------|
D|-------------------------------------------------------------------|
A|-------------------------------------------------------------------|
E|-------------------------------------------------------------------|

E5                    D#7
Please hold on, it's alright
C#m                  Bsus2
Please hold on, it's alright
Asus2          Bsus2
Please hold on
E5                     D#7
  Down in a local bar
                     E5
Out on the Boulevard
The sound of an old guitar
   D#7
Is saving you
      E
Don't turn away
Asus2
Dry your eyes, dry your eyes
      C#m
Don't be afraid
            Asus2
But keep it all inside, all inside
         E
When you fall apart
Asus2
Dry your eyes, dry your eyes
C#m
Life is always hard
Asus2
Dry your eyes, dry your eyes
      E
Don't turn away
Asus2
Dry your eyes, dry your eyes
      C#m
Don't be afraid
            Asus2
But keep it all inside, all inside
         E
When you fall apart
Asus2
Dry your eyes, dry your eyes
C#m
Life is always hard
        Asus2
For the Belle of the Boulevard

e|----------------------------------------------|
B|-------9-12-9-----------9-12-9----------------|
G|--9-11--------11-9-9-11--------11-9-11-9~-----|
D|----------------------------------------------|
A|----------------------------------------------|
E|----------------------------------------------|

            
            
Suggest correction
Creating personal tab
Creating personal tab
You can edit any tab online and save it as your Personal.

You can edit, replace or remove any tab part or add personal notes – all changes will be seen only by you.

Personal tabs can be accessed anytime from any device, even offline.
Learn more »
comments
print report bad tab
10 comments total. Showing first comments.
0 reply
xkevlar 10 Nov 03, 2009 02:02 PM

Awesome. The other tab was mine by the way, it didn't get posted under my account name for some reason, so I couldn't fix all the mistakes I found in it later. But thanks for the partial credit. I fixed my old tab up, but it hasn't gone through yet. :P

Also, awesome job on the intro/outro.

0 reply
guitartaber93 209 Nov 17, 2009 04:36 PM

Nice job man.

0 reply
jax-magic-hat 10 Nov 22, 2009 06:36 PM

congrats, great song and youve nailed it!

guest
You may want to rate the tab now too:
select rating
Wanna post a correction for this tab? Suggest correction