Oops, an error
Loading. Please wait.

For You To Notice tab

version 3
version 3

Whole song

Interactive

5,317 views 6 this week
3 commentsread comments
1 2 3 4 5
x 3
add to favorites
×
Save as Personal and add changes to this tab that will be seen only by you. Learn more ›
×
You can save this tab as Personal to edit and correct it or add notes. All changes will be seen only by you. Learn more »
launch autoscroll
font size
0
reset
how to read this tab
guitar tuner
edit
Autoscroll
slow
fast
+/-
esc
set tempo
stop
Artist : Dashboard Confessional
Song   : For You To Notice
-------
Tab    : Dan Schey
Email  : danschey@hotmail.com
Date   : 07.13.2006
-------

TUNING        : E1   A   D   E2   B   e  (recorded 1/2 step flat)
from standard : 0    0   0  -3/2  0   0


verse:
-------------0---------------0---------------0---------------0---------------0---------------0---------------0---------------0-|
-------------0---------------0---------------0---------------0---------------0---------------0---------------0---------------0-|
-------------0---------------0---------------0---------------0---------------0---------------0---------------0---------------0-|
-----2---------------2---------------4---------------6---------------2---------------2---------------4---------------4---------|
-------------------------------------------------------------------------------------------------------------------------------|
-0-------0-------0-------0-------0-------0-------0-------0-------0-------0-------0-------0-------0-------0-------0-------0-----|


bridge:
---------------------------------------------0---------------0---------------0---------------0---------------0---------------0-|
---------------------------------------------0---------------0---------------0---------------0---------------0---------------0-|
---------------------------------------------0---------------0---------------0---------------0---------------0---------------0-|
-----2-------4-------6-------7-------9---------------9---------------11--------------7---------------9---------------9---------|
-------------------------------------------------------------------------------------------------------------------------------|
-0-------0-------0-------0-------0-------0-------0-------0-------0-------0-------0-------0-------0-------0-------0-------0-----|


-----12*-----12*-------------0-------0-|
-----------------------------0-------0-|
---------------------------------------|
-11------9-------7-------6h7-----2/4---|
---------------------------------------|
---------------------------------------|


chorus:
-0---------0---------0------------|
-0---------0---------0------------|
-0---------0---------0------------|
-2---4/6---2---4/6---4-------2----|
-2---4/6---4---4/6---6-------2----|
-0---------0---------0------------|


outro:
-----12*-----12*-------------0-------0---0-|
-----------------------------0-------0---0-|
-----------------------------------------0-|
-11------9-------7-------6h7-----2/4-----2-|
-----------------------------------------2-|
-----------------------------------------0-|

            
            
Suggest correction
Creating personal tab
Creating personal tab
You can edit any tab online and save it as your Personal.

You can edit, replace or remove any tab part or add personal notes – all changes will be seen only by you.

Personal tabs can be accessed anytime from any device, even offline.
Learn more »
Give kudos to tab author, rate the tab!
1 2 3 4 5
comments
print report bad tab
3 comments total.
0 reply
ohcrocsle 10 Jul 16, 2006 12:17 PM

notes:

* = natural harmonic

I learned this originally on the old dashtabs.com site that no longer exists.

0 reply
Painsaw 10 Jan 05, 2007 09:13 AM

cool tab.... ill post the 2. guitar soon :)

0 reply
dashboarddude 10 Nov 03, 2008 09:52 AM

you got the intro mostly right. but not quite. the rest sounds ok. i learned how to play this while watching the mtv dvd. so i know this is not 100% but its still ok

guest
Wanna post a correction for this tab? Suggest correction