Oops, an error
Loading. Please wait.

Several Ways To Die Trying tab

version 4
version 4

Whole song

4,595 views 3 this week
2 commentsread comments
1 2 3 4 5
x 6
add to favorites
×
Save as Personal and add changes to this tab that will be seen only by you. Learn more ›
×
You can save this tab as Personal to edit and correct it or add notes. All changes will be seen only by you. Learn more »
launch autoscroll
font size
0
reset
how to read this tab
guitar tuner
edit
Autoscroll
slow
fast
+/-
esc
set tempo
stop
Intro/Verse

Guitar 1
e---------------------------------------------------------------|
B---------------------------------------------------------------|
G--4-4-4-4--4-4-4-4--9-9-9-9---2-2-2-2--------------------------|
D--2-2-2-2—-1-1-1-1--11111111--4-4-4-4--------------------------|repeat over and over
A--2-2-2-2--2-2-2-2--11111111--4-4-3-3--------------------------|
E--0-0-0-0--0-0-0-0---------------------------------------------|

Guitar 2
e--------------------------------------------------------------|
B--------------------------------------------------------------|
G--------------------------------------------------------------|
D-----2-1~-------/6-2~--4-2-4-2-4-2----------------------------|
A---2---------2---------------------3-2------------------------|
E--------------------------------------0-----------------------|

e--------------/4444000----------------------------------------|
B--------------/5555555----------------------------------------|
G--------------/4444444----------------------------------------|
D-----2-1~--------------4-2-4-2-4-2----------------------------|
A---2-------------------------------3-2------------------------|
E---------------------------------------0----------------------|

e---------7p0--/4444000-2---2---2------------------------------|
B---2/5-0------/5555555---5---5---5----------------------------|
G—-------------/4444444-------------5-4------------------------|
D--------------------------------------------------------------|
A--------------------------------------------------------------|
E--------------------------------------------------------------|

e---------7p0--/4444000-2---2---2------------------------------|
B---2/5-0------/5555555---5---5---5----------------------------|
G--------------/4444444-------------5-4------------------------|
D--------------------------------------------------------------|
A--------------------------------------------------------------|
E---------------------------------------0----------------------|

e-----------7--/4444000-2---2---2-2----------------------------|
B—5~-4-2-4-----/5555555---5---5—-5-----------------------------|
G--------------/4444444-------------5-4------------------------|
D---------------------------------------/6-2-------------------|
A--------------------------------------------------------------|
E--------------------------------------------------------------|

e------------7-/4444000-2---2---2-2----------------------------|
B--5-4-2/5-0---/5555555---5---5—-5-----------------------------|
G--------------/4444444-------------5-4------------------------|
D--------------------------------------------------------------|
A--------------------------------------------------------------|
E--------------------------------------------------------------|

Pre Chorus

Guitar 1
e-----------------------------------------------------------|
B--3-3-3-3--2-2-2-2--5-5-3-3--2-2-2-2-----------------------|
G--2-2-2-2--2-2-2-2--4-4-2-2--2-2-2-2-----------------------|
D—-0-0-0-0—-2-2-2-2--2-2-0-0--2-2-2-2-----------------------|
A-----------0-0-0-0—----------0-0-0-0-----------------------|
E-----------------------------------------------------------|

e-----------------------------------------------------------|
B-----------------------------------------------------------|
G--2-2-2-2-2-2-2-2-2-2-2-2-2-2-2-2--------------------------|
D--4-4-4-4—4-4-4-4-4-4-4-4-4-4-4-4--------------------------|
A--4-4-4-4-4-4-4-4—3-3-3-3-3-3-3-3--------------------------|
E-----------------------------------------------------------|

Chorus

Guitar 1
e--------------------------------------------------|
B-----------2-2-2-2-----------2-2-2-2--------------|
G--1-1-1-1--2-2-2-2--1-1-1-1--2-2-2-2--------------|
D--2-2-2-2—-2-2-2-2--2-2-2-2--2-2-2-2--------------|
A--2-2-2-2—-0-0-0-0--2-2-2-2--0-0-0-0--------------|
E--0-0-0-0-----------0-0-0-0-----------------------|

e--------------------------------------------------|
B-----------2-2-2-2---------—-4~-------------------|
G--1-1-1-1--2-2-2-2--1-1-1-1—-4~-------------------|
D--2-2-2-2—-2-2-2-2--2-2-2-2—-4~-------------------|
A--2-2-2-2—-0-0-0-0--2-2-2-2—-2~-------------------|
E--0-0-0-0-----------0-0-0-0-----------------------|

Guitar 2
E----------------------------------------------------------------|
B----------------------------------------------------------------|
G--9--9--13-11-13-11-9--9--8--9--9--13-11-13-11-9--11-13-15------|
D----------------------------------------------------------------|
A--7--7--11-9--11-9--7--7--6--7--7--11-9--11-9--7--9--11-13------|
E----------------------------------------------------------------|

B----------------------------------------------------------------|
G--9--9--13-11-13-11-13-9--8--9--9--13-11-13-11-9~---------------|
D----------------------------------------------------------------|
A--7--7--11-9--11-9--11-7--6--7--7--11-9--11-9--7~---------------|
E----------------------------------------------------------------|

Repeat Verse
Repeat Pre-chorus
Repeat Chorus

Interlude

Guitar 1
E--------------------------------------------|
B--4-4-4-4—-4~-4~-4~-4~--2~~-----------------|
G--4-4-4-4—-4~-4~-4~-4~--2~~-----------------|
D--4-4-4-4—-4~-4~-4~-4~--2~~-----------------|
A--2-2-2-2—-2~-2~-2~-2~--0~~-----------------|
E—-------------------------------------------|

Guitar 2
e—--------------------------0-0-0-0-2-2-0-0--4-4-4-4-2-2-0-0---|
B---------------------------2-2-2-2-4-4-2-2--5-5-5-5-4-4-2-2---|
G--------------------------------------------------------------|
D--------------------------------------------------------------|
A--------------------------------------------------------------|
E--------------------------------------------------------------|

Guitar 1
E--------------------------------------------|
B--4~-4~-4~-4~-------------------------------|
G--4~-4~-4~-4~-------------------------------|
D--4~-4~-4~-4~-------------------------------|
A--2~-2~-2~-2~-------------------------------|
E—-------------------------------------------|

Guitar 1
E--------------------------------------------|
B--2-2-2-2—-4-4-4-4--------------------------|
G--2-2-2-2—-4-4-4-4--------------------------| repeat over and over
D--2-2-2-2—-4-4-4-4--------------------------|
A--0-0-0-0—-2-2-2-2--------------------------|
E—-------------------------------------------|

Guitar 2
E--------------------------------------------------------------|
B--------------------------------------------------------------|
G--9-9-9-9-9-9-9-9-13131311119-9-9-----------------------------|
D--------------------------------------------------------------|
A--7-7-7-7-7-7-7-7-1111119-9-7-7-7-----------------------------|
E--------------------------------------------------------------|

E--------------------------------------------------------------|
B--------------------------------------------------------------|
G—-119-9-8-8-9-9-9-13131311119-9-9-----------------------------|
D--------------------------------------------------------------|
A—-9-7-7-6-6-7-7-7-1111119-9-7-7-7-----------------------------|
E--------------------------------------------------------------|

E--------------------------------------------------------------|
B--------------------------------------------------------------|
G—-119-9-8-8-9-9-9-13131311119-9-9-----------------------------|
D--------------------------------------------------------------|
A—-9-7-7-6-6-7-7-7-1111119-9-7-7-7-----------------------------|
E--------------------------------------------------------------|

E--------------------------------------------------------------|
B--------------------------------------------------------------|
G--111111111111111-13131311119-9-9-----------------------------|
D--------------------------------------------------------------|
A—-9-9-9-9-9-9-9-9-1111119-9-7-7-7-----------------------------|
E--------------------------------------------------------------|

Repeat Pre-Chorus
Repeat Chorus

Outro

Guitar 1
E--------------------------------------------|
B--4-4-4-4—-4~-------------------------------|
G--4-4-4-4—-4~-------------------------------|
D--4-4-4-4—-4~-------------------------------|
A--2-2-2-2—-2~-------------------------------|
E—-------------------------------------------|

Guitar 2
e-----------------12----12----12----12-11-12------|
B-------------------------------------------------|
G--------------12----12----12----12---------------|
D-------------------------------------------------|
A-------------------------------------------------|
E-------------------------------------------------|

Guitar 1
E--------------------------------------------|
B--4-4-4-4—----------------------------------|
G--4-4-4-4—----------------------------------|
D--4-4-4-4—----------------------------------|
A--2-2-2-2—----------------------------------|
E—-------------------------------------------|

Guitar 2
e----12----12----12----12-11-12-------------------|
B-------------------------------------------------|
G-12----12----12----12----------------------------|
D-------------------------------------------------|
A-------------------------------------------------|
E-------------------------------------------------|

Guitar 1
e-----------------------------------------------------------------|
B-44444444444444446666666688881010121212121212121212121212121212--|
G-44444444444444446666666688881010121212121212121212121212121212--|
D-44444444444444446666666688881010121212121212121212121212121212--|
A—22222222222222224444444466668888101010101010101010101010101010--
E-----------------------------------------------------------------

Guitar 1
E--------------------------------------------|
B--2-2-2-2—-4-4-4-4--------------------------|
G--2-2-2-2—-4-4-4-4--------------------------| repeat over and over
D--2-2-2-2—-4-4-4-4--------------------------|
A--0-0-0-0—-2-2-2-2--------------------------|
E—-------------------------------------------|

Guitar 2
E-----------------------------------------------------------------|
B-----------------------------------------------------------------|
G--9--9--13-11-13-11-9--9--8--9--9--13-11-13-11-9—-9--8-9---------|
D-----------------------------------------------------------------|
A--7--7--11-9--11-9--7--7--6--7--7--11-9--11-9--7--7—-6-7---------|
E-----------------------------------------------------------------|

E----------------------------------------------------------------|
B----------------------------------------------------------------|
G--9--9--13-15-13-11-9--11-13-15151515151515151515151515151515---|
D----------------------------------------------------------------|
A--7--7--11-13-11-9--7--9--11-13131313131313131313131313131313---|
E----------------------------------------------------------------|

End (clean)
E----------------------------------------------------------------|
B----------------------------------------------------------------|
G--9--9--13-11-13-11-9--9--8--9--9--13-11-13-11-9--11-13-15------|
D----------------------------------------------------------------|
A--7--7--11-9--11-9--7--7--6--7--7--11-9--11-9--7--9--11-13------|
E----------------------------------------------------------------|

B----------------------------------------------------------------|
G--9--9--13-11-13-11-13-9--8--9--9--13-11-13-11-9--11-13-15------|
D----------------------------------------------------------------|
A--7--7--11-9--11-9--11-7--6--7--7--11-9--11-9--7--9--11-13------|
E----------------------------------------------------------------|

thats it! you may prefer to play power chords or bar chords in some places instead of 
chords like i have tabbed. ENJOY

            
            
Suggest correction
Creating personal tab
Creating personal tab
You can edit any tab online and save it as your Personal.

You can edit, replace or remove any tab part or add personal notes – all changes will be seen only by you.

Personal tabs can be accessed anytime from any device, even offline.
Learn more »
comments
print report bad tab
2 comments total.
0 reply
FF7 51 Jul 25, 2006 08:58 AM

nice tab mate!

0 reply
touchdown_boy 392 Apr 16, 2008 05:27 PM

this is not right, ive have made a lot of mistakes that i will fix in the near future

guest
You may want to rate the tab now too:
select rating
Wanna post a correction for this tab? Suggest correction