Oops, an error
Loading. Please wait.

So Long Sweet Summer tab

version 1
version 1

Whole song

Interactive

11,867 views 1 this week
3 commentsread comments
1 2 3 4 5
x 5
add to favorites
×
Save as Personal and add changes to this tab that will be seen only by you. Learn more ›
×
You can save this tab as Personal to edit and correct it or add notes. All changes will be seen only by you. Learn more »
launch autoscroll
font size
0
reset
how to read this tab
guitar tuner
edit
Autoscroll
slow
fast
+/-
esc
set tempo
stop
heres the whole tab for the song cuz the other tab doesnt have the riffs for the song

Tuning: 1/2 step down
Intro riff
eb|-5------------------------------------|
Bb|---4-6-7-6/2--------------------------|
Gb|-----------------2--------------------|
Db|-------------0-----0---------0--------|   x2
Ab|---------------2-----2-----0-----0----|
Eb|-----------------------0-5-----2---7-3|
Verse 1
     D  A  B  G9  
eb|--2--------3-|
Bb|--3--2--3--3-|
Gb|--2--2--4--0-|
Db|--0--2--4--0-| x4(on 3rd time pm the D chord then strum normally)
Ab|-----0--2--2-|
Eb|-----------3-|
Verse 2
eb|-3-----3-----------0------------2-----5-----3---|
Bb|---2-----2-------2---2--------0---0-----0-----0-|
Gb|-----3-----3---0-------0---2-------2-----0-----0|
Db|------------------------------------------------|x4
Ab|-------------------------2----------------------|
Eb|-------------0----------------------------------|

Repeat Verse 1 x4
Repeat Intro x2

Outro
eb|-------|
Bb|-------|
Gb|-------|
Db|7-4-9-5|x8
Ab|7-4-9-5|
Eb|5-2-7-3|

the outro leads the the beginning of another song so strum the A5 a couple of times.

and there you go. happy playing

            
            
Suggest correction
Creating personal tab
Creating personal tab
You can edit any tab online and save it as your Personal.

You can edit, replace or remove any tab part or add personal notes – all changes will be seen only by you.

Personal tabs can be accessed anytime from any device, even offline.
Learn more »
comments
print report bad tab
3 comments total.
0 reply
blink182fan9491 106 Sep 06, 2005 08:00 PM

eb|-3-----3-----------0------------2-----5-----3---|
Bb|---2-----2-------2---2--------0---0-----0-----0-|
Gb|-----3-----3---0-------0---2-------2-----0-----0|
Db|------------------------------------------------|x4
Ab|-------------0------------2---------------------|
Eb|------------------------------------------------|
^
i made a mistake here. its supposed to be open A not open E

0 reply
blink182fan9491 106 Sep 06, 2005 08:00 PM

and i also forgot. the song title is wrong. i forgot to title was age six racer. wasnt thinking right

0 reply
blink182fan9491 106 Sep 06, 2005 08:00 PM

and i ALSO forgot. the song ending doesnt lead to another song. i had an incomplete version. it just repeats the intro again

guest
You may want to rate the tab now too:
select rating
Wanna post a correction for this tab? Suggest correction