Oops, an error
Loading. Please wait.

So Long Sweet Summer tab

version 3
version 3

Whole song

Interactive

6,397 views 1 this week
2 commentsread comments
1 2 3 4 5
2 more votes to show rating
add to favorites
×
Save as Personal and add changes to this tab that will be seen only by you. Learn more ›
×
You can save this tab as Personal to edit and correct it or add notes. All changes will be seen only by you. Learn more »
launch autoscroll
font size
0
reset
how to read this tab
guitar tuner
edit
Autoscroll
slow
fast
+/-
esc
set tempo
stop
Difficulty
intermediate
---------------------------------------------------------------------------
                             So Long Sweet Summer - Dashboard Confessional
---------------------------------------------------------------------------
Tabbed by:isac

This is a good and easy song to play! Enjoy.  You'll have to listen to the song for the strumming.

Tuning:Dropped D

  Intro
eb|---5-----------------------------------|
Bb|----0----------------------------------|
Gb|-----6-7-6/2---------------------------| x2
Db|---------------0---0-----0-------------|
Ab|----------------2---2---0---0----------|
Eb|-----------------0---0-5---2--7-3------|

       D    A    Bm   G
eb|----3----0----2----3----|    On third time strike D chord
Bb|----2----2----3----3----|    once, then palm mute D chord.
Gb|----3----2----4----0----|  x4  
Db|----0----2----4----0----|
Ab|----x----0----2----2----|
Eb|----x----x----x----3----|

eb|---2---2-----0-----2---5---3-----|
Bb|----3---3-----3-----3---0---0----|
Gb|-----2---2-----2-----2---0---0---|  x4
Db|---------------------------------|
Ab|-----------0-----2---------------|
Eb|---------------------------------|

      D    A    Bm   G
eb|----3----0----2----3----|    On third time strike D chord
Bb|----2----2----3----3----|    once, then palm mute D chord.
Gb|----3----2----4----0----|  x4  
Db|----0----2----4----0----|
Ab|----x----0----2----2----|
Eb|----x----x----x----3----|

  Intro 
        A5  F#5/B5  G5
eb|------------------------|
Bb|------------------------|
Gb|------------------------|  x8
Db|----777--444/9--5555----|
Ab|----777--444/9--5555----|
Eb|----555--222/7--3333----|

  Intro

| /  slide up
| \  slide down
| h  hammer-on
| p  pull-off
| ~  vibrato
| +  harmonic
| x  Mute note
============================================================================

            
            
Suggest correction
Creating personal tab
Creating personal tab
You can edit any tab online and save it as your Personal.

You can edit, replace or remove any tab part or add personal notes – all changes will be seen only by you.

Personal tabs can be accessed anytime from any device, even offline.
Learn more »
Give kudos to tab author, rate the tab!
1 2 3 4 5
comments
print report bad tab
2 comments total.
0 reply
brightest13 10 May 24, 2006 04:09 AM

age six racer.

+1 reply
one_more_down 31 Jul 17, 2009 02:31 AM

It's not in Dropped D it's in E flat. And i'm not sure why you think it's intermediate either...

guest
Wanna post a correction for this tab? Suggest correction