Oops, an error
Loading. Please wait.

Swiss Army Romance tab

version 2
version 2

Whole song

37,005 views 15 this week
21 commentsread comments
1 2 3 4 5
x 27
add to favorites
×
Save as Personal and add changes to this tab that will be seen only by you. Learn more ›
×
You can save this tab as Personal to edit and correct it or add notes. All changes will be seen only by you. Learn more »
launch autoscroll
font size
0
reset
how to read this tab
guitar tuner
edit
Autoscroll
slow
fast
+/-
esc
set tempo
stop
Author
TUNED HALF STEP DOWN E MINOR!!

Verse

Eb|--0--0--0--0-------------------------
Ab|--0--0--0--0-------------------------
Db|--4--4--3--6-------------------------
Gb|--6--6--4--7-------------------------   X4
Bb|--7--7--4--7-------------------------
Eb|--0--5--x--x-------------------------

Bridge

Eb|--0--0--0--0-------------------------
Ab|--0--0--0--0-------------------------
Db|--9--9--6--4-------------------------
Gb|--9--9--6--4-------------------------  X4
Bb|--7--6--4--2-------------------------
Eb|--0--0--0--0-------------------------


Verse again:

Eb|--0--0--0--0-------------------------
Ab|--0--0--0--0-------------------------
Db|--4--4--3--6-------------------------
Gb|--6--6--4--7------------------------- X4
Bb|--7--7--4--7-------------------------
Eb|--0--5--x--x-------------------------

OUTRO:

Eb|--0--0--0--0-------------------------
Ab|--0--0--0--0-------------------------
Db|--1--6--3--2-------------------------
Gb|--2--7--4--2-------------------------
Bb|--2--7--4--0------------------------- X4
Eb|--0--x--x--0-------------------------

The it goes like this
Eb|--0--0--0--0-------------------------
Ab|--0--0--0--0-------------------------
Db|--1--2--3--6------------------------- X4
Gb|--2--2--4--7-------------------------
Bb|--2--0--4--7-------------------------
Eb|--0--0--0--0-------------------------

Grow up FAST"
        Eb|--0--
        Ab|--0--
        Db|--1--
        Gb|--2--
        Bb|--2--
        Eb|--0--

            
            
Suggest correction
Creating personal tab
Creating personal tab
You can edit any tab online and save it as your Personal.

You can edit, replace or remove any tab part or add personal notes – all changes will be seen only by you.

Personal tabs can be accessed anytime from any device, even offline.
Learn more »
comments
print report bad tab
21 comments total. Showing first comments.
-1 reply
crokle 10 Jul 16, 2004 08:00 PM

In the chorus, the last chord 024400 resolves with 024040, and the phrase is 'nothing FROM the life you...', not 'of'. Other than that, great tab.

0 reply
gookymo 10 Jun 28, 2005 08:00 PM

no it doesnt.. watch the unplugged dvd, this tab is 100% good job man!!

+1 reply
Toshio 31 Sep 15, 2005 08:00 PM

Just a correction on the outro, other than that, good tab

Eb|--0-----------0---0---0-----------0--
Ab|--0-----------1---0---1-----------0--
Db|--1---6---3---2---1---2---3---6---1-- Strum 2 Times each
Gb|--2---7---4---2---2---2---4---7---2--
Bb|--2---7---4---0---2---0---4---7---2-- X4
Eb|--0---5---2---X---0---X---2---5---0--

Ending

Eb|--0- --- ---- ---0----
Ab|--1- --- ---- ---0----
Db|--2- --3 ---6 ---1----
Gb|--2-X2 --4 X6 ---7 X6 ---2-X1--
Bb|--0- --4 ---7 ---2----
Eb|--X- --2 ---5 ---0----

guest
You may want to rate the tab now too:
select rating
Wanna post a correction for this tab? Suggest correction