Oops, an error
Loading. Please wait.

Path Of Darkness And Light intro tab

version 1
version 1

Intro

Whole song

by Datura
154 views 1 this week
no commentswrite comment
1 2 3 4 5
3 more votes to show rating
add to favorites
×
Save as Personal and add changes to this tab that will be seen only by you. Learn more ›
×
You can save this tab as Personal to edit and correct it or add notes. All changes will be seen only by you. Learn more »
launch autoscroll
font size
0
reset
how to read this tab
guitar tuner
edit
Autoscroll
slow
fast
+/-
esc
set tempo
stop
This song is fairly easy 2 play. But all at the same time it's fun. I hope u enjoy!

-0--0-0-0-0--0-0-0-0--0-0-0------------------------------|
-0--0-0-0-0--0-0-0-0--0-0-0--0---------------------------|
-9--9-9-9-9--9-9-9-9--9-9-9--7------7--7-----------------|
-9--9-9-9-9--9-9-9-9--9-9-9--7--10--7--7-----------------|
-7--7-7-7-7--7-7-7-7--7-7-7--5--10--4--5-----------------|
-0--0-0-0-0--0-0-0-0--0-0-0--o--8---0--0-----------------|
Guitar 1 breaks off after X2 and goes into solo.
Rythm plays above part throughout solo.

Solo:
-\12~-12~-12-13p12p10-------------------10h12p10-12b-10h12--|
----------------------13p12p10-10h12p10---------------------|
------------------------------------------------------------|
------------------------------------------------------------|
------------------------------------------------------------|
------------------------------------------------------------|

---------------12h14-14b-12h14-12-12-15p14p12-15p14p12---|
-13b-13b-11h13-------------------------------------------|
---------------------------------------------------------|
---------------------------------------------------------|
---------------------------------------------------------|
---------------------------------------------------------|

-15p14p12-----------------------------12-14-15-15b-15-15-|
-----------15p14-15p14-14h15-12-14-15--------------------|
---------------------------------------------------------|
---------------------------------------------------------|
---------------------------------------------------------|

-15p14p12-15p14p12-18Trem-17Trem-15Trem------------------|
---------------------------------------------------------|
---------------------------------------------------------|
---------------------------------------------------------|
---------------------------------------------------------|
---------------------------------------------------------|

---------------------------------------------------------|
-18Trem-17Trem-15Trem-13Trem-12Trem--2b!-----------------|
---------------------------------------------------------|
---------------------------------------------------------|
---------------------------------------------------------|
---------------------------------------------------------|

Trem= tremelo
!=Divebomb

            
            
Suggest correction
Creating personal tab
Creating personal tab
You can edit any tab online and save it as your Personal.

You can edit, replace or remove any tab part or add personal notes – all changes will be seen only by you.

Personal tabs can be accessed anytime from any device, even offline.
Learn more »
Give kudos to tab author, rate the tab!
1 2 3 4 5
comments
print report bad tab
guest
You may want to rate the tab now too:
select rating
Wanna post a correction for this tab? Suggest correction