Oops, an error
Loading. Please wait.

Praning tab

2,835 views 1 this week
2 commentsread comments
1 2 3 4 5
x 3
add to favorites
×
Save as Personal and add changes to this tab that will be seen only by you. Learn more ›
×
You can save this tab as Personal to edit and correct it or add notes. All changes will be seen only by you. Learn more »
launch autoscroll
font size
0
reset
how to read this tab
guitar tuner
edit
Autoscroll
slow
fast
+/-
esc
set tempo
stop
Author
Difficulty
Title		:Praning
Artist		:Datu’s Tribe
Tabbed By	:Ferdie Esguerra
Email		:dhex_armageddon@yahoo.com


PLS. RATE THIS TAB: This is my own interpretation but originally done. I played this way
1997 at Yosh café in Pasay city with my Band Selda Singko. I’ve found that this is a
good song to do. So if anyone finds any errors in this, please email me and let me know. 
any corrections or additions, and especially comments since I did this almost 10 years ago.


Symbols:			Dedicated to my fucking bandmate
				Selda Singko are:
|   /   = slide up		yours truly	- Guitar
|   \   = slide down		Michael Esguerra- Vocal
|   h   = hammer-on		Aries Esguerra	- Bass
|   p   = pull			Raffy Mendoza	- Drums
|  ( )  = harmonic		Chris Abarientos- former vocalist


Intro:

E|--0--2--4--5--5--4--2--4--0--9--0--9--0--9--0--9------|
B|--0--0--0--0--0--0--0--0--0--9--0--9--0--9--7--9------|
G|------------------------------------------------------| (4X)
D|------------------------------------------------------|
A|------------------------------------------------------|
E|------------------------------------------------------|

E|--0-0-0-0-0-0-0-\-3-3-3-3-3-3-\-1-1-1-1-1-1-0-0-0-0---|
B|--5-5-5-5-5-5-5-\-3-3-3-3-3-3-\-1-1-1-1-1-1-0-0-0-0---|
G|------------------------------------------------------|
D|------------------------------------------------------|
A|------------------------------------------------------|
E|------------------------------------------------------|

E|--3-2-0-5-3-0-7-5-0-8-7-0-10-8-0-12-10-0-(12)---------|
B|-----------------------------------------(12)---------|
G|------------------------------------------------------|
D|------------------------------------------------------|
A|------------------------------------------------------|
E|------------------------------------------------------|

Drum beat:
Intro solo:
E|--------------------15-12---------------------------------------------------|
B|--10p-10-\-10/12-15------15-12-15p-15---------------------------------------|
G|--------------------------------------12-14-14p-----12----------------------|
D|-----------------------------------------------12-14-------12---------------|
A|------------------------------------------------------12-14--------12-------|
E|--------------------------------------------------------------12-14---12\---|

Fill (1)
E|------------------------|
B|------------------------|
G|------------------------|  (4X) At the same time you can play it on Bass.
D|-----0---2---3---2------|
A|--0-----------------0---|
E|------------------------|

1st Stanza:
Tumingain ka lang, halos lahat! Napakarami nang nagkakalat
Lahat ay merong hawak na patpat sabay-sabay silang sumasatsat hoy!
|---x-----x-----x--------|
|---x-----x-----x--------|
|---2-----5-----4--------|
|---2-----5-----4--------|
|---0-----3-----2--------|
|---x-----x-----x--------| after this Play riff(1)


2nd Stanza:
Sa dami ng aking pinapasan, hindi ko na nakayanan.
Pinagpatuloy pa rin ang turuan, biglang lumindol akoy nadaganan.
|---x-----x-----x--------|
|---x-----x-----x--------|
|---2-----5-----4--------|
|---2-----5-----4--------|
|---0-----3-----2--------|
|---x-----x-----x--------|

Fill (2) before chorus
E|------------------------------------------------|
B|------------------------------------------------|
G|--------------4---------------------4-------5---|
D|--------5--7----7--5--4-------5--7----5--7------|
A|---7--7-----------------7--7--------------------|
E|------------------------------------------------|

Chorus:

O hindi hindi ako, hindi ako baka sila, baka sila hinahanap nyo, hinahanap nyo nawawala. (2X)
E|----------------------------------------------------|
B|----------------------------------------------------|
G|----------------------------------------------------|
D|----------------------------------------------------|
A|---------------2-----------------------2--------3---|
E|---0--0--3--5-----5--3--2--0--0--3--5-----3--5------|

After chorus:
|---x-----x-----x-----x---|
|---x-----x-----x-----x---|
|---x-----x-----x-----x---|
|---4-----4-----4-----4---|
|---4-----4-----4-----4---|
|---2-----2-----2-----2---|

Then do fill (1)

3rd Stanza:
Matagal ko ng gustong makaahon, ganito nalang ang buhay ko taon-taon
Sa tindi ng aking tinitiis, mas mabubusog pa aking mga ipis. Ha!
|---x-----x-----x--------|
|---x-----x-----x--------|
|---2-----5-----4--------|
|---2-----5-----4--------|
|---0-----3-----2--------|
|---x-----x-----x--------|

Then do fill (2)
Repeat chorus:

Guitar Solo: I cannot post the guitar solo co’z it’s very hard to do, otherwise it is
use for my fucking self. So Make your fucking own, do it!

Repeat chorus (2X)

4th Stanza:
Kinapos na ng hininga, pag hihirap koy itigil na
gutom hirap at walang pera, bakit naman ginawa nyo pang tanga.
|---x-----x-----x--------|
|---x-----x-----x--------|
|---2-----5-----4--------|
|---2-----5-----4--------|
|---0-----3-----2--------|
|---x-----x-----x--------|

5th Stanza:
Lahat tayo’y ililibing, ayon sa kababayan nating magagaling
Pero mas okey daw ang dating, ha ha! Kung hindi ka praning ha ha!

Repeat chorus (4X) in the 3rd play fill(2)
Then Pause:

Chorus (last part)
O, ano ba! hindi ako, hindi ako baka iba! baka nasa labas ang hinahanap nyo lumayas na
p_ _ _ _!

E|------------------------------------------------|
B|------------------------------------------------|
G|--------------4---------------------4-------5---|
D|--------5--7----7--5--4-------5--7----5--7------|
A|---7--7-----------------7--7--------------------|
E|------------------------------------------------|

END........


For my loving wife and son, Rosan & Kurt Cobain
Urrutia boy’s ng Malanday Valenzuela, my former band ‘Selda Singko’ para sa inyo ito. Sa
naniniwala pa sa akin maraming salamat!
For more info. And suggestion: Email me at dhex_armageddon@yahoo.com

            
            
Suggest correction
Creating personal tab
Creating personal tab
You can edit any tab online and save it as your Personal.

You can edit, replace or remove any tab part or add personal notes – all changes will be seen only by you.

Personal tabs can be accessed anytime from any device, even offline.
Learn more »
Give kudos to tab author, rate the tab!
1 2 3 4 5
comments
print report bad tab
2 comments total.
0 reply
taba 10 Feb 20, 2007 12:40 AM

wow! this is the great tab, originally done. thanks dear tabber

0 reply
taba 10 Feb 20, 2007 12:40 AM

good tab

guest
You may want to rate the tab now too:
select rating
Wanna post a correction for this tab? Suggest correction